  0
SECTION
  2
HEADER
  9
$ACADVER
  1
AC1009
  9
$INSBASE
 10
0
 20
0
 30
0
  9
$EXTMIN
 10
0
 20
0
  9
$EXTMAX
 10
2970
 20
2100
  9
$LIMMIN
 10
0
 20
0
  9
$LIMMAX
 10
2970
 20
2100
  9
$LTSCALE
 40
10
  0
ENDSEC
  0
SECTION
  2
TABLES
  0
TABLE
  2
LTYPE
 70
     9
  0
LTYPE
  2
CONTINUOUS
 70
    64
  3
実線
 72
    65
 73
     0
 40
0.0
  0
LTYPE
  2
DASHED1
 70
    64
  3
--  --  --  --  --  --  --  --  
 72
    65
 73
     2
 40
2.5
 49
1.25
 49
-1.25
  0
LTYPE
  2
DASHED2
 70
    64
  3
----    ----    ----    ----    
 72
    65
 73
     2
 40
5.0
 49
2.5
 49
-2.5
  0
LTYPE
  2
DASHED3
 70
    64
  3
------  ------  ------  ------  
 72
    65
 73
     2
 40
5.0
 49
3.75
 49
-1.25
  0
LTYPE
  2
CENTER1
 70
    64
  3
----- - ----- - ----- - ----- - 
 72
    65
 73
     4
 40
10.0
 49
6.25
 49
-1.25
 49
1.25
 49
-1.25
  0
LTYPE
  2
CENTER2
 70
    64
  3
----------  --  ----------  --  
 72
    65
 73
     4
 40
20.0
 49
12.5
 49
-2.5
 49
2.5
 49
-2.5
  0
LTYPE
  2
PHANTOM1
 70
    64
  3
--- - - --- - - --- - - --- - - 
 72
    65
 73
     6
 40
10.0
 49
3.25
 49
-1.25
 49
1.25
 49
-1.25
 49
1.25
 49
-1.25
  0
LTYPE
  2
PHANTOM2
 70
    64
  3
--------  -  -  --------  -  -  
 72
    65
 73
     6
 40
20.0
 49
10.0
 49
-2.5
 49
1.25
 49
-2.5
 49
1.25
 49
-2.5
  0
LTYPE
  2
DOT
 70
    64
  3
-   -   -   -   -   -   -   -   
 72
    65
 73
     2
 40
2.5
 49
0.625
 49
-1.875
  0
LTYPE
  2
DUMMY
 70
    64
  3
ダミー
 72
    65
 73
     0
 40
0.0
  0
LTYPE
  2
RAND1
 70
    64
  3
ランダム線1
 72
    65
 73
     4
 40
10.0
 49
1.0
 49
-2.0
 49
3.0
 49
-4.0
  0
LTYPE
  2
RAND2
 70
    64
  3
ランダム線2
 72
    65
 73
     4
 40
14.0
 49
2.0
 49
-3.0
 49
4.0
 49
-5.0
  0
LTYPE
  2
RAND3
 70
    64
  3
ランダム線3
 72
    65
 73
     4
 40
18.0
 49
3.0
 49
-4.0
 49
5.0
 49
-6.0
  0
LTYPE
  2
RAND4
 70
    64
  3
ランダム線4
 72
    65
 73
     4
 40
22.0
 49
4.0
 49
-5.0
 49
6.0
 49
-7.0
  0
LTYPE
  2
RAND5
 70
    64
  3
ランダム線5
 72
    65
 73
     4
 40
26.0
 49
5.0
 49
-6.0
 49
7.0
 49
-8.0
  0
LTYPE
  2
LONG1
 70
    64
  3
----------  --  ----------  --  
 72
    65
 73
     4
 40
40.0
 49
32.5
 49
-2.5
 49
2.5
 49
-2.5
  0
LTYPE
  2
LONG2
 70
    64
  3
--------  -  -  --------  -  -  
 72
    65
 73
     6
 40
40.0
 49
30.0
 49
-2.5
 49
1.25
 49
-2.5
 49
1.25
 49
-2.5
  0
LTYPE
  2
LONG3
 70
    64
  3
+++++++++++++++..+++++++++++++++
 72
    65
 73
     2
 40
40.0
 49
37.5
 49
-2.5
  0
LTYPE
  2
LONG4
 70
    64
  3
+++++++++++++++..+++++++++++++++
 72
    65
 73
     2
 40
80.0
 49
75.0
 49
-5.0
  0
LTYPE
  2
LONG5
 70
    64
  3
----------  --  ----------  --  
 72
    65
 73
     4
 40
60.0
 49
37.5
 49
-7.5
 49
7.5
 49
-7.5
  0
LTYPE
  2
dashed
 70
   64
  3
-------   -------------   ------
 72
   65
 73
    2
 40
7.5
 49
6
 49
-1.5
  0
LTYPE
  2
dashed_spaced
 70
   64
  3
----        --------        ----
 72
   65
 73
    2
 40
12
 49
6
 49
-6
  0
LTYPE
  2
long_dashed_dotted
 70
   64
  3
------------- --- --------------
 72
   65
 73
    4
 40
15.25
 49
12
 49
-1.5
 49
0.25
 49
-1.5
  0
LTYPE
  2
long_dashed_double-dotted
 70
   64
  3
----------- --- --- ------------
 72
   65
 73
    6
 40
17
 49
12
 49
-1.5
 49
0.25
 49
-1.5
 49
0.25
 49
-1.5
  0
LTYPE
  2
long_dashed_triplicate-dotted
 70
   64
  3
--------- --- --- --- ----------
 72
   65
 73
    8
 40
18.75
 49
12
 49
-1.5
 49
0.25
 49
-1.5
 49
0.25
 49
-1.5
 49
0.25
 49
-1.5
  0
LTYPE
  2
dotted
 70
   64
  3
   -       -       -       -    
 72
   65
 73
    2
 40
1.75
 49
0.25
 49
-1.5
  0
LTYPE
  2
chain
 70
   64
  3
-------------- -- --------------
 72
   65
 73
    4
 40
18.5
 49
12
 49
-1.5
 49
3.5
 49
-1.5
  0
LTYPE
  2
chain_double_dash
 70
   64
  3
------------ -- -- -------------
 72
   65
 73
    6
 40
23.5
 49
12
 49
-1.5
 49
3.5
 49
-1.5
 49
3.5
 49
-1.5
  0
LTYPE
  2
dashed_dotted
 70
   64
  3
-----------     -     ----------
 72
   65
 73
    4
 40
9.25
 49
6
 49
-1.5
 49
0.25
 49
-1.5
  0
LTYPE
  2
double-dashed_dotted
 70
   64
  3
------   -----------   -   -----
 72
   65
 73
    6
 40
16.75
 49
6
 49
-1.5
 49
6
 49
-1.5
 49
0.25
 49
-1.5
  0
LTYPE
  2
dashed_double-dotted
 70
   64
  3
---------    -    -    ---------
 72
   65
 73
    6
 40
11
 49
6
 49
-1.5
 49
0.25
 49
-1.5
 49
0.25
 49
-1.5
  0
LTYPE
  2
double-dashed_double-dotted
 70
   64
  3
-----   ---------   -   -   ----
 72
   65
 73
    8
 40
18.5
 49
6
 49
-1.5
 49
6
 49
-1.5
 49
0.25
 49
-1.5
 49
0.25
 49
-1.5
  0
LTYPE
  2
dashed_triplicate-dotted
 70
   64
  3
-------    -    -    -    ------
 72
   65
 73
    8
 40
12.75
 49
6
 49
-1.5
 49
0.25
 49
-1.5
 49
0.25
 49
-1.5
 49
0.25
 49
-1.5
  0
LTYPE
  2
double-dashed_triplicate-dotted
 70
   64
  3
-----  ---------  -  -  -  -----
 72
   65
 73
   10
 40
20.25
 49
6
 49
-1.5
 49
6
 49
-1.5
 49
0.25
 49
-1.5
 49
0.25
 49
-1.5
 49
0.25
 49
-1.5
  0
LTYPE
  2
undefined
 70
   64
  3
--------------------------------
 72
   65
 73
    0
 40
0
  0
LTYPE
  2
_
 70
   64
  3
                                
 72
   65
 73
    0
 40
0
  0
LTYPE
  2
__18
 70
   64
  3
                                
 72
   65
 73
    0
 40
0
  0
LTYPE
  2
__19
 70
   64
  3
                                
 72
   65
 73
    0
 40
0
  0
LTYPE
  2
__20
 70
   64
  3
                                
 72
   65
 73
    0
 40
0
  0
LTYPE
  2
__21
 70
   64
  3
                                
 72
   65
 73
    0
 40
0
  0
LTYPE
  2
__22
 70
   64
  3
                                
 72
   65
 73
    0
 40
0
  0
LTYPE
  2
__23
 70
   64
  3
                                
 72
   65
 73
    0
 40
0
  0
LTYPE
  2
__24
 70
   64
  3
                                
 72
   65
 73
    0
 40
0
  0
LTYPE
  2
__25
 70
   64
  3
                                
 72
   65
 73
    0
 40
0
  0
LTYPE
  2
__26
 70
   64
  3
                                
 72
   65
 73
    0
 40
0
  0
LTYPE
  2
__27
 70
   64
  3
                                
 72
   65
 73
    0
 40
0
  0
LTYPE
  2
__28
 70
   64
  3
                                
 72
   65
 73
    0
 40
0
  0
LTYPE
  2
__29
 70
   64
  3
                                
 72
   65
 73
    0
 40
0
  0
LTYPE
  2
__30
 70
   64
  3
                                
 72
   65
 73
    0
 40
0
  0
LTYPE
  2
__31
 70
   64
  3
                                
 72
   65
 73
    0
 40
0
  0
LTYPE
  2
__32
 70
   64
  3
                                
 72
   65
 73
    0
 40
0
  0
ENDTAB
  0
TABLE
  2
STYLE
  5
3
100
AcDbSymbolTable
 70
     1
  0
STYLE
  5
10
100
AcDbSymbolTableRecord
100
AcDbTextStyleTableRecord
  2
STANDARD
 70
     0
 40
0.0
 41
1.0
 50
0.0
 71
     0
 42
0.2
  3
txt
  4
bigfont.shx
  0
STYLE
  5
26
100
AcDbSymbolTableRecord
100
AcDbTextStyleTableRecord
  2
TATEGAKI
 70
    68
 40
0.0
 41
1.0
 50
0.0
 71
     0
 42
1.0
  3
txt
  4
bigfont.shx
  0
ENDTAB
  0
TABLE
  2
LAYER
 70
    5
  0
LAYER
  2
_0-0_
 70
   64
 62
    7
  6
CONTINUOUS
  0
LAYER
  2
_1-0_
 70
   64
 62
    7
  6
CONTINUOUS
  0
LAYER
  2
_1-1_
 70
   64
 62
    7
  6
CONTINUOUS
  0
LAYER
  2
_1-2_
 70
   64
 62
    7
  6
CONTINUOUS
  0
LAYER
  2
ADD_LINE
 70
   64
 62
    7
  6
CONTINUOUS
  0
ENDTAB
  0
ENDSEC
  0
SECTION
  2
BLOCKS
  0
ENDSEC
  0
SECTION
  2
ENTITIES
  0
LINE
  8
_1-1_
  6
CONTINUOUS
 62
    7
 10
1292.8603195131516
 20
722.21065123569088
 11
1292.8603195131516
 21
667.71065612557311
  0
LINE
  8
_1-0_
  6
CONTINUOUS
 62
    7
 10
911.4999840342399
 20
783.21062890719259
 11
394.50001838124393
 21
783.21062890719259
  0
LINE
  8
_1-1_
  6
CONTINUOUS
 62
    7
 10
1337.857580884543
 20
833.98067548008032
 11
1337.857580884543
 21
564.66476926472194
  0
LINE
  8
_1-0_
  6
CONTINUOUS
 62
    7
 10
325.00000294571208
 20
1483.2107025499968
 11
1077.0000245672395
 21
1483.2107025499968
  0
LINE
  8
_1-1_
  6
CONTINUOUS
 62
    7
 10
494.92726859899108
 20
1524.514147784259
 11
532.9272675974488
 21
1524.514147784259
  0
LINE
  8
_1-1_
  6
CONTINUOUS
 62
    7
 10
532.9272675974488
 20
1524.514147784259
 11
532.9272675974488
 21
1484.5140935831548
  0
LINE
  8
_1-1_
  6
CONTINUOUS
 62
    7
 10
532.9272675974488
 20
1484.5140935831548
 11
494.92726859899108
 21
1484.5140935831548
  0
LINE
  8
_1-1_
  6
CONTINUOUS
 62
    7
 10
494.92726859899108
 20
1484.5140935831548
 11
494.92726859899108
 21
1524.514147784259
  0
LINE
  8
_1-1_
  6
CONTINUOUS
 62
    7
 10
492.94895407776107
 20
1519.7289231937364
 11
494.93120554331188
 21
1520.7637271365604
  0
LINE
  8
_1-1_
  6
CONTINUOUS
 62
    7
 10
494.93120554331188
 20
1520.7637271365604
 11
532.92538661293997
 21
1521.4268835354956
  0
LINE
  8
_1-1_
  6
CONTINUOUS
 62
    7
 10
532.92538661293997
 20
1521.4268835354956
 11
534.94254565146889
 21
1520.461894738628
  0
LINE
  8
_1-1_
  6
CONTINUOUS
 62
    7
 10
534.94254565146889
 20
1520.461894738628
 11
532.9602941859182
 21
1519.4272657711074
  0
LINE
  8
_1-1_
  6
CONTINUOUS
 62
    7
 10
532.9602941859182
 20
1519.4272657711074
 11
494.9661131162901
 21
1518.763934396869
  0
LINE
  8
_1-1_
  6
CONTINUOUS
 62
    7
 10
494.9661131162901
 20
1518.763934396869
 11
492.94895407776107
 21
1519.7289231937364
  0
LINE
  8
_1-1_
  6
CONTINUOUS
 62
    7
 10
492.94895407776107
 20
1516.7149735969926
 11
494.93120554331188
 21
1517.7497775398165
  0
LINE
  8
_1-1_
  6
CONTINUOUS
 62
    7
 10
494.93120554331188
 20
1517.7497775398165
 11
532.92538661293997
 21
1518.4129339387516
  0
LINE
  8
_1-1_
  6
CONTINUOUS
 62
    7
 10
532.92538661293997
 20
1518.4129339387516
 11
534.94254565146889
 21
1517.4479451418842
  0
LINE
  8
_1-1_
  6
CONTINUOUS
 62
    7
 10
534.94254565146889
 20
1517.4479451418842
 11
532.9602941859182
 21
1516.4133161743634
  0
LINE
  8
_1-1_
  6
CONTINUOUS
 62
    7
 10
532.9602941859182
 20
1516.4133161743634
 11
494.9661131162901
 21
1515.749984800125
  0
LINE
  8
_1-1_
  6
CONTINUOUS
 62
    7
 10
494.9661131162901
 20
1515.749984800125
 11
492.94895407776107
 21
1516.7149735969926
  0
LINE
  8
_1-1_
  6
CONTINUOUS
 62
    7
 10
492.94895407776107
 20
1513.7010240002487
 11
494.93120554331188
 21
1514.7358279430728
  0
LINE
  8
_1-1_
  6
CONTINUOUS
 62
    7
 10
494.93120554331188
 20
1514.7358279430728
 11
532.92538661293997
 21
1515.3989843420077
  0
LINE
  8
_1-1_
  6
CONTINUOUS
 62
    7
 10
532.92538661293997
 20
1515.3989843420077
 11
534.94254565146889
 21
1514.4339955451405
  0
LINE
  8
_1-1_
  6
CONTINUOUS
 62
    7
 10
534.94254565146889
 20
1514.4339955451405
 11
532.9602941859182
 21
1513.3991916023165
  0
LINE
  8
_1-1_
  6
CONTINUOUS
 62
    7
 10
532.9602941859182
 20
1513.3991916023165
 11
494.9661131162901
 21
1512.7360352033813
  0
LINE
  8
_1-1_
  6
CONTINUOUS
 62
    7
 10
494.9661131162901
 20
1512.7360352033813
 11
492.94895407776107
 21
1513.7010240002487
  0
LINE
  8
_1-1_
  6
CONTINUOUS
 62
    7
 10
492.94895407776107
 20
1510.5775398637338
 11
494.93120554331188
 21
1511.6121688312544
  0
LINE
  8
_1-1_
  6
CONTINUOUS
 62
    7
 10
494.93120554331188
 20
1511.6121688312544
 11
532.92538661293997
 21
1512.2755002054928
  0
LINE
  8
_1-1_
  6
CONTINUOUS
 62
    7
 10
532.92538661293997
 20
1512.2755002054928
 11
534.94254565146889
 21
1511.3105114086252
  0
LINE
  8
_1-1_
  6
CONTINUOUS
 62
    7
 10
534.94254565146889
 20
1511.3105114086252
 11
532.9602941859182
 21
1510.2757074658011
  0
LINE
  8
_1-1_
  6
CONTINUOUS
 62
    7
 10
532.9602941859182
 20
1510.2757074658011
 11
494.9661131162901
 21
1509.6125510668662
  0
LINE
  8
_1-1_
  6
CONTINUOUS
 62
    7
 10
494.9661131162901
 20
1509.6125510668662
 11
492.94895407776107
 21
1510.5775398637338
  0
LINE
  8
_1-1_
  6
CONTINUOUS
 62
    7
 10
492.94895407776107
 20
1507.4538807519152
 11
494.93120554331188
 21
1508.4886846947393
  0
LINE
  8
_1-1_
  6
CONTINUOUS
 62
    7
 10
494.93120554331188
 20
1508.4886846947393
 11
532.92538661293997
 21
1509.1518410936746
  0
LINE
  8
_1-1_
  6
CONTINUOUS
 62
    7
 10
532.92538661293997
 20
1509.1518410936746
 11
534.94254565146889
 21
1508.1870272721103
  0
LINE
  8
_1-1_
  6
CONTINUOUS
 62
    7
 10
534.94254565146889
 20
1508.1870272721103
 11
532.9602941859182
 21
1507.1522233292862
  0
LINE
  8
_1-1_
  6
CONTINUOUS
 62
    7
 10
532.9602941859182
 20
1507.1522233292862
 11
494.9661131162901
 21
1506.4890669303511
  0
LINE
  8
_1-1_
  6
CONTINUOUS
 62
    7
 10
494.9661131162901
 20
1506.4890669303511
 11
492.94895407776107
 21
1507.4538807519152
  0
LINE
  8
_1-1_
  6
CONTINUOUS
 62
    7
 10
492.94895407776107
 20
1504.3303966154003
 11
494.93120554331188
 21
1505.3652005582242
  0
LINE
  8
_1-1_
  6
CONTINUOUS
 62
    7
 10
494.93120554331188
 20
1505.3652005582242
 11
532.92538661293997
 21
1506.0283569571593
  0
LINE
  8
_1-1_
  6
CONTINUOUS
 62
    7
 10
532.92538661293997
 20
1506.0283569571593
 11
534.94254565146889
 21
1505.0633681602917
  0
LINE
  8
_1-1_
  6
CONTINUOUS
 62
    7
 10
534.94254565146889
 20
1505.0633681602917
 11
532.9602941859182
 21
1504.0287391927711
  0
LINE
  8
_1-1_
  6
CONTINUOUS
 62
    7
 10
532.9602941859182
 20
1504.0287391927711
 11
494.9661131162901
 21
1503.3654078185327
  0
LINE
  8
_1-1_
  6
CONTINUOUS
 62
    7
 10
494.9661131162901
 20
1503.3654078185327
 11
492.94895407776107
 21
1504.3303966154003
  0
LINE
  8
_1-1_
  6
CONTINUOUS
 62
    7
 10
492.94895407776107
 20
1501.2069124788852
 11
494.93120554331188
 21
1502.2417164217088
  0
LINE
  8
_1-1_
  6
CONTINUOUS
 62
    7
 10
494.93120554331188
 20
1502.2417164217088
 11
532.92538661293997
 21
1502.9048728206442
  0
LINE
  8
_1-1_
  6
CONTINUOUS
 62
    7
 10
532.92538661293997
 20
1502.9048728206442
 11
534.94254565146889
 21
1501.9398840237768
  0
LINE
  8
_1-1_
  6
CONTINUOUS
 62
    7
 10
534.94254565146889
 20
1501.9398840237768
 11
532.9602941859182
 21
1500.9050800809528
  0
LINE
  8
_1-1_
  6
CONTINUOUS
 62
    7
 10
532.9602941859182
 20
1500.9050800809528
 11
494.9661131162901
 21
1500.2419236820176
  0
LINE
  8
_1-1_
  6
CONTINUOUS
 62
    7
 10
494.9661131162901
 20
1500.2419236820176
 11
492.94895407776107
 21
1501.2069124788852
  0
LINE
  8
_1-1_
  6
CONTINUOUS
 62
    7
 10
492.94895407776107
 20
1498.0834283423699
 11
494.93120554331188
 21
1499.1180573098907
  0
LINE
  8
_1-1_
  6
CONTINUOUS
 62
    7
 10
494.93120554331188
 20
1499.1180573098907
 11
532.92538661293997
 21
1499.7813886841291
  0
LINE
  8
_1-1_
  6
CONTINUOUS
 62
    7
 10
532.92538661293997
 20
1499.7813886841291
 11
534.94254565146889
 21
1498.8163998872617
  0
LINE
  8
_1-1_
  6
CONTINUOUS
 62
    7
 10
534.94254565146889
 20
1498.8163998872617
 11
532.9602941859182
 21
1497.7815959444376
  0
LINE
  8
_1-1_
  6
CONTINUOUS
 62
    7
 10
532.9602941859182
 20
1497.7815959444376
 11
494.9661131162901
 21
1497.1184395455023
  0
LINE
  8
_1-1_
  6
CONTINUOUS
 62
    7
 10
494.9661131162901
 20
1497.1184395455023
 11
492.94895407776107
 21
1498.0834283423699
  0
LINE
  8
_1-1_
  6
CONTINUOUS
 62
    7
 10
492.94895407776107
 20
1494.8502346907801
 11
494.93120554331188
 21
1495.8850386336042
  0
LINE
  8
_1-1_
  6
CONTINUOUS
 62
    7
 10
494.93120554331188
 20
1495.8850386336042
 11
532.92538661293997
 21
1496.5481950325395
  0
LINE
  8
_1-1_
  6
CONTINUOUS
 62
    7
 10
532.92538661293997
 20
1496.5481950325395
 11
534.94254565146889
 21
1495.5833812109749
  0
LINE
  8
_1-1_
  6
CONTINUOUS
 62
    7
 10
534.94254565146889
 20
1495.5833812109749
 11
532.9602941859182
 21
1494.5485772681511
  0
LINE
  8
_1-1_
  6
CONTINUOUS
 62
    7
 10
532.9602941859182
 20
1494.5485772681511
 11
494.9661131162901
 21
1493.885420869216
  0
LINE
  8
_1-1_
  6
CONTINUOUS
 62
    7
 10
494.9661131162901
 20
1493.885420869216
 11
492.94895407776107
 21
1494.8502346907801
  0
LINE
  8
_1-1_
  6
CONTINUOUS
 62
    7
 10
492.94895407776107
 20
1491.5076814747224
 11
494.93120554331188
 21
1492.5424854175462
  0
LINE
  8
_1-1_
  6
CONTINUOUS
 62
    7
 10
494.93120554331188
 20
1492.5424854175462
 11
532.92538661293997
 21
1493.2056418164816
  0
LINE
  8
_1-1_
  6
CONTINUOUS
 62
    7
 10
532.92538661293997
 20
1493.2056418164816
 11
534.94254565146889
 21
1492.2406530196142
  0
LINE
  8
_1-1_
  6
CONTINUOUS
 62
    7
 10
534.94254565146889
 20
1492.2406530196142
 11
532.9602941859182
 21
1491.2058490767902
  0
LINE
  8
_1-1_
  6
CONTINUOUS
 62
    7
 10
532.9602941859182
 20
1491.2058490767902
 11
494.9661131162901
 21
1490.5426926778548
  0
LINE
  8
_1-1_
  6
CONTINUOUS
 62
    7
 10
494.9661131162901
 20
1490.5426926778548
 11
492.94895407776107
 21
1491.5076814747224
  0
LINE
  8
_1-1_
  6
CONTINUOUS
 62
    7
 10
492.96373949087723
 20
1522.752146481547
 11
494.94599095642798
 21
1523.7869504243711
  0
LINE
  8
_1-1_
  6
CONTINUOUS
 62
    7
 10
494.94599095642798
 20
1523.7869504243711
 11
532.94017202605596
 21
1524.4501068233062
  0
LINE
  8
_1-1_
  6
CONTINUOUS
 62
    7
 10
532.94017202605596
 20
1524.4501068233062
 11
534.95733106458511
 21
1523.4851180264388
  0
LINE
  8
_1-1_
  6
CONTINUOUS
 62
    7
 10
534.95733106458511
 20
1523.4851180264388
 11
532.97507959903442
 21
1522.4504890589178
  0
LINE
  8
_1-1_
  6
CONTINUOUS
 62
    7
 10
532.97507959903442
 20
1522.4504890589178
 11
494.98089852940609
 21
1521.7873326599827
  0
LINE
  8
_1-1_
  6
CONTINUOUS
 62
    7
 10
494.98089852940609
 20
1521.7873326599827
 11
492.96373949087723
 21
1522.752146481547
  0
LINE
  8
_1-1_
  6
CONTINUOUS
 62
    7
 10
453.53012408989275
 20
1472.4906656272624
 11
453.53012408989275
 21
1484.4906468925328
  0
LINE
  8
_1-1_
  6
CONTINUOUS
 62
    7
 10
572.53012786040426
 20
1471.4905067944619
 11
454.53010794738998
 21
1471.4905067944619
  0
LINE
  8
_1-1_
  6
CONTINUOUS
 62
    7
 10
573.5301117179016
 20
1484.4906468925328
 11
573.5301117179016
 21
1472.4906656272624
  0
LINE
  8
_1-1_
  6
CONTINUOUS
 62
    7
 10
454.53010794738998
 20
1485.49063075003
 11
572.53012786040426
 21
1485.49063075003
  0
LINE
  8
_1-1_
  6
CONTINUOUS
 62
    7
 10
478.4101686514482
 20
1135.5934794068796
 11
478.4101686514482
 21
1471.5935672480166
  0
LINE
  8
_1-1_
  6
CONTINUOUS
 62
    7
 10
546.41016455690828
 20
1133.5935116918849
 11
480.41018011026864
 21
1133.5935116918849
  0
LINE
  8
_1-1_
  6
CONTINUOUS
 62
    7
 10
548.41017601572867
 20
1471.5935672480166
 11
548.41017601572867
 21
1135.5934794068796
  0
LINE
  8
_1-1_
  6
CONTINUOUS
 62
    7
 10
478.4101686514482
 20
1471.5935672480166
 11
548.41017601572867
 21
1471.5935672480166
  0
LINE
  8
_1-1_
  6
CONTINUOUS
 62
    7
 10
454.00002026649975
 20
664.21066888050677
 11
454.00002026649975
 21
782.21064504969536
  0
LINE
  8
_1-1_
  6
CONTINUOUS
 62
    7
 10
572.99998029318544
 20
663.21064127918373
 11
455.00000412399697
 21
663.21064127918373
  0
LINE
  8
_1-1_
  6
CONTINUOUS
 62
    7
 10
574.0000078945086
 20
782.21064504969536
 11
574.0000078945086
 21
664.21066888050677
  0
LINE
  8
_1-1_
  6
CONTINUOUS
 62
    7
 10
455.00000412399697
 20
783.21062890719259
 11
572.99998029318544
 21
783.21062890719259
  0
LINE
  8
_1-1_
  6
CONTINUOUS
 62
    7
 10
549.22691698700305
 20
716.09990123616217
 11
549.22691698700305
 21
756.61429534087301
  0
LINE
  8
_1-1_
  6
CONTINUOUS
 62
    7
 10
549.00299234279805
 20
714.18304679016342
 11
549.22691698700305
 21
716.09990123616217
  0
LINE
  8
_1-1_
  6
CONTINUOUS
 62
    7
 10
519.32092556161763
 20
683.61429266027494
 11
519.39975193568648
 21
683.62601600558594
  0
LINE
  8
_1-1_
  6
CONTINUOUS
 62
    7
 10
508.93894092456719
 20
683.61429266027494
 11
519.32092556161763
 21
683.61429266027494
  0
LINE
  8
_1-1_
  6
CONTINUOUS
 62
    7
 10
479.22690962272259
 20
714.66523498181675
 11
479.49383444767648
 21
712.9279489406747
  0
LINE
  8
_1-1_
  6
CONTINUOUS
 62
    7
 10
479.22690962272259
 20
756.61429534087301
 11
479.22690962272259
 21
714.66523498181675
  0
LINE
  8
_1-1_
  6
CONTINUOUS
 62
    7
 10
547.22690552818267
 20
758.61426305586758
 11
481.22687733771716
 21
758.61426305586758
  0
LINE
  8
_1-1_
  6
CONTINUOUS
 62
    7
 10
479.25578054774223
 20
744.28658533280418
 11
479.25578054774223
 21
756.6098334706428
  0
LINE
  8
_1-1_
  6
CONTINUOUS
 62
    7
 10
479.25578054774223
 20
756.6098334706428
 11
479.29423137060922
 21
757.00002839666524
  0
LINE
  8
_1-1_
  6
CONTINUOUS
 62
    7
 10
479.29423137060922
 20
757.00002839666524
 11
479.40805280530782
 21
757.37517544661705
  0
LINE
  8
_1-1_
  6
CONTINUOUS
 62
    7
 10
479.40805280530782
 20
757.37517544661705
 11
479.59287046925908
 21
757.72092664563968
  0
LINE
  8
_1-1_
  6
CONTINUOUS
 62
    7
 10
479.59287046925908
 20
757.72092664563968
 11
479.84159786268549
 21
758.02407135834551
  0
LINE
  8
_1-1_
  6
CONTINUOUS
 62
    7
 10
479.84159786268549
 20
758.02407135834551
 11
480.14465508773981
 21
758.27279875177214
  0
LINE
  8
_1-1_
  6
CONTINUOUS
 62
    7
 10
480.14465508773981
 20
758.27279875177214
 11
480.49040628676238
 21
758.45757267189754
  0
LINE
  8
_1-1_
  6
CONTINUOUS
 62
    7
 10
480.49040628676238
 20
758.45757267189754
 11
480.86559708053994
 21
758.57139410659613
  0
LINE
  8
_1-1_
  6
CONTINUOUS
 62
    7
 10
480.86559708053994
 20
758.57139410659613
 11
481.25579200656261
 21
758.60980118563725
  0
LINE
  8
_1-1_
  6
CONTINUOUS
 62
    7
 10
481.25579200656261
 20
758.60980118563725
 11
514.25578422988235
 21
758.60980118563725
  0
LINE
  8
_1-1_
  6
CONTINUOUS
 62
    7
 10
514.25578422988235
 20
758.60980118563725
 11
547.25577645320232
 21
758.60980118563725
  0
LINE
  8
_1-1_
  6
CONTINUOUS
 62
    7
 10
547.25577645320232
 20
758.60980118563725
 11
547.64597137922476
 21
758.57139410659613
  0
LINE
  8
_1-1_
  6
CONTINUOUS
 62
    7
 10
547.64597137922476
 20
758.57139410659613
 11
548.02116217300238
 21
758.45757267189754
  0
LINE
  8
_1-1_
  6
CONTINUOUS
 62
    7
 10
548.02116217300238
 20
758.45757267189754
 11
548.36691337202501
 21
758.27279875177214
  0
LINE
  8
_1-1_
  6
CONTINUOUS
 62
    7
 10
548.36691337202501
 20
758.27279875177214
 11
548.67001434090514
 21
758.02407135834551
  0
LINE
  8
_1-1_
  6
CONTINUOUS
 62
    7
 10
548.67001434090514
 20
758.02407135834551
 11
548.91874173433166
 21
757.72092664563968
  0
LINE
  8
_1-1_
  6
CONTINUOUS
 62
    7
 10
548.91874173433166
 20
757.72092664563968
 11
549.10355939828287
 21
757.37517544661705
  0
LINE
  8
_1-1_
  6
CONTINUOUS
 62
    7
 10
549.10355939828287
 20
757.37517544661705
 11
549.21738083298135
 21
757.00002839666524
  0
LINE
  8
_1-1_
  6
CONTINUOUS
 62
    7
 10
549.21738083298135
 20
757.00002839666524
 11
549.2557879120227
 21
756.6098334706428
  0
LINE
  8
_1-1_
  6
CONTINUOUS
 62
    7
 10
549.2557879120227
 20
756.6098334706428
 11
549.2557879120227
 21
744.28658533280418
  0
LINE
  8
_1-1_
  6
CONTINUOUS
 62
    7
 10
549.2557879120227
 20
744.28658533280418
 11
549.2557879120227
 21
731.96329345113986
  0
LINE
  8
_1-1_
  6
CONTINUOUS
 62
    7
 10
549.2557879120227
 20
731.96329345113986
 11
549.21738083298135
 21
731.57309852511719
  0
LINE
  8
_1-1_
  6
CONTINUOUS
 62
    7
 10
549.21738083298135
 20
731.57309852511719
 11
549.10355939828287
 21
731.19790773133968
  0
LINE
  8
_1-1_
  6
CONTINUOUS
 62
    7
 10
549.10355939828287
 20
731.19790773133968
 11
548.91874173433166
 21
730.85211278849113
  0
LINE
  8
_1-1_
  6
CONTINUOUS
 62
    7
 10
548.91874173433166
 20
730.85211278849113
 11
548.67001434090514
 21
730.54905556343692
  0
LINE
  8
_1-1_
  6
CONTINUOUS
 62
    7
 10
548.67001434090514
 20
730.54905556343692
 11
548.36691337202501
 21
730.3003281700104
  0
LINE
  8
_1-1_
  6
CONTINUOUS
 62
    7
 10
548.36691337202501
 20
730.3003281700104
 11
548.02116217300238
 21
730.11551050605919
  0
LINE
  8
_1-1_
  6
CONTINUOUS
 62
    7
 10
548.02116217300238
 20
730.11551050605919
 11
547.64597137922476
 21
730.00168907136072
  0
LINE
  8
_1-1_
  6
CONTINUOUS
 62
    7
 10
547.64597137922476
 20
730.00168907136072
 11
547.25577645320232
 21
729.96328199231937
  0
LINE
  8
_1-1_
  6
CONTINUOUS
 62
    7
 10
547.25577645320232
 20
729.96328199231937
 11
514.25578422988235
 21
729.96328199231937
  0
LINE
  8
_1-1_
  6
CONTINUOUS
 62
    7
 10
514.25578422988235
 20
729.96328199231937
 11
481.25579200656261
 21
729.96328199231937
  0
LINE
  8
_1-1_
  6
CONTINUOUS
 62
    7
 10
481.25579200656261
 20
729.96328199231937
 11
480.86559708053994
 21
730.00168907136072
  0
LINE
  8
_1-1_
  6
CONTINUOUS
 62
    7
 10
480.86559708053994
 20
730.00168907136072
 11
480.49040628676238
 21
730.11551050605919
  0
LINE
  8
_1-1_
  6
CONTINUOUS
 62
    7
 10
480.49040628676238
 20
730.11551050605919
 11
480.14465508773981
 21
730.3003281700104
  0
LINE
  8
_1-1_
  6
CONTINUOUS
 62
    7
 10
480.14465508773981
 20
730.3003281700104
 11
479.84159786268549
 21
730.54905556343692
  0
LINE
  8
_1-1_
  6
CONTINUOUS
 62
    7
 10
479.84159786268549
 20
730.54905556343692
 11
479.59287046925908
 21
730.85211278849113
  0
LINE
  8
_1-1_
  6
CONTINUOUS
 62
    7
 10
479.59287046925908
 20
730.85211278849113
 11
479.40805280530782
 21
731.19790773133968
  0
LINE
  8
_1-1_
  6
CONTINUOUS
 62
    7
 10
479.40805280530782
 20
731.19790773133968
 11
479.29423137060922
 21
731.57309852511719
  0
LINE
  8
_1-1_
  6
CONTINUOUS
 62
    7
 10
479.29423137060922
 20
731.57309852511719
 11
479.25578054774223
 21
731.96329345113986
  0
LINE
  8
_1-1_
  6
CONTINUOUS
 62
    7
 10
479.25578054774223
 20
731.96329345113986
 11
479.25578054774223
 21
744.28658533280418
  0
LINE
  8
_1-1_
  6
CONTINUOUS
 62
    7
 10
490.40376331815395
 20
729.82360795658064
 11
538.40377586688771
 21
729.82360795658064
  0
LINE
  8
_1-1_
  6
CONTINUOUS
 62
    7
 10
538.40377586688771
 20
729.82360795658064
 11
538.40377586688771
 21
715.8236152324896
  0
LINE
  8
_1-1_
  6
CONTINUOUS
 62
    7
 10
538.40377586688771
 20
715.8236152324896
 11
490.40376331815395
 21
715.8236152324896
  0
LINE
  8
_1-1_
  6
CONTINUOUS
 62
    7
 10
490.40376331815395
 20
715.8236152324896
 11
490.40376331815395
 21
729.82360795658064
  0
LINE
  8
_1-2_
  6
CONTINUOUS
 62
    7
 10
1319.860321103836
 20
681.21065692091531
 11
1319.860321103836
 21
765.21065700928671
  0
LINE
  8
_1-2_
  6
CONTINUOUS
 62
    7
 10
1399.8603420183927
 20
681.21065692091531
 11
1351.8575298648082
 21
681.21065692091531
  0
LINE
  8
_1-2_
  6
CONTINUOUS
 62
    7
 10
1337.857580884543
 20
681.21065692091531
 11
1319.860321103836
 21
681.21065692091531
  0
LINE
  8
_1-2_
  6
CONTINUOUS
 62
    7
 10
1399.8603420183927
 20
765.21065700928671
 11
1399.8603420183927
 21
757.70027955986825
  0
LINE
  8
_1-2_
  6
CONTINUOUS
 62
    7
 10
1399.8603420183927
 20
682.7003091642755
 11
1399.8603420183927
 21
681.21065692091531
  0
LINE
  8
_1-2_
  6
CONTINUOUS
 62
    7
 10
1319.860321103836
 20
765.21065700928671
 11
1337.857580884543
 21
765.21065700928671
  0
LINE
  8
_1-2_
  6
CONTINUOUS
 62
    7
 10
1351.8575298648082
 20
765.21065700928671
 11
1399.8603420183927
 21
765.21065700928671
  0
LINE
  8
_1-0_
  6
CONTINUOUS
 62
    7
 10
1399.8603420183927
 20
758.21068251915426
 11
1399.8603420183927
 21
757.70027955986825
  0
LINE
  8
_1-0_
  6
CONTINUOUS
 62
    7
 10
1403.8602774483818
 20
681.21065692091531
 11
1403.8602774483818
 21
682.7003091642755
  0
LINE
  8
_1-0_
  6
CONTINUOUS
 62
    7
 10
1453.8603451997617
 20
681.21065692091531
 11
1403.8602774483818
 21
681.21065692091531
  0
LINE
  8
_1-0_
  6
CONTINUOUS
 62
    7
 10
1453.8603451997617
 20
545.21066510999526
 11
1453.8603451997617
 21
681.21065692091531
  0
LINE
  8
_1-0_
  6
CONTINUOUS
 62
    7
 10
1459.8603358323971
 20
545.21066510999526
 11
1453.8603451997617
 21
545.21066510999526
  0
LINE
  8
_1-0_
  6
CONTINUOUS
 62
    7
 10
1459.8603358323971
 20
765.21065700928671
 11
1459.8603358323971
 21
757.70027955986825
  0
LINE
  8
_1-0_
  6
CONTINUOUS
 62
    7
 10
1459.8603358323971
 20
718.8226044408143
 11
1459.8603358323971
 21
545.21066510999526
  0
LINE
  8
_1-0_
  6
CONTINUOUS
 62
    7
 10
1423.8603045489335
 20
765.21065700928671
 11
1459.8603358323971
 21
765.21065700928671
  0
LINE
  8
_1-0_
  6
CONTINUOUS
 62
    7
 10
1420.2839843278684
 20
757.70027955986825
 11
1423.8603045489335
 21
765.21065700928671
  0
LINE
  8
_1-0_
  6
CONTINUOUS
 62
    7
 10
1420.5882663800448
 20
684.6856664414571
 11
1419.753546696372
 21
686.60798886567932
  0
LINE
  8
_1-0_
  6
CONTINUOUS
 62
    7
 10
1466.4513930390699
 20
704.59986815581442
 11
1420.5882663800448
 21
684.6856664414571
  0
LINE
  8
_1-0_
  6
CONTINUOUS
 62
    7
 10
1520.6181476843403
 20
579.85227562746013
 11
1466.4513930390699
 21
704.59986815581442
  0
LINE
  8
_1-0_
  6
CONTINUOUS
 62
    7
 10
1526.1216458942897
 20
582.24200083021947
 11
1520.6181476843403
 21
579.85227562746013
  0
LINE
  8
_1-0_
  6
CONTINUOUS
 62
    7
 10
1438.4990008733448
 20
784.03957440586157
 11
1449.9358241254297
 21
757.70027955986825
  0
LINE
  8
_1-0_
  6
CONTINUOUS
 62
    7
 10
1465.8760742423156
 20
720.98932361970992
 11
1526.1216458942897
 21
582.24200083021947
  0
LINE
  8
_1-0_
  6
CONTINUOUS
 62
    7
 10
1405.4775741753888
 20
769.70131067695763
 11
1438.4990008733448
 21
784.03957440586157
  0
LINE
  8
_1-0_
  6
CONTINUOUS
 62
    7
 10
1405.0600831020754
 20
757.70027955986825
 11
1405.4775741753888
 21
769.70131067695763
  0
LINE
  8
_1-1_
  6
CONTINUOUS
 62
    7
 10
1345.7179089402598
 20
662.21065742168651
 11
1337.7178631049785
 21
662.21065742168651
  0
LINE
  8
_1-1_
  6
CONTINUOUS
 62
    7
 10
1337.7178631049785
 20
782.21064504969536
 11
1345.7179089402598
 21
782.21064504969536
  0
LINE
  8
_1-1_
  6
CONTINUOUS
 62
    7
 10
1235.860277271639
 20
695.90381430843149
 11
1235.860277271639
 21
750.71062861262135
  0
LINE
  8
_1-1_
  6
CONTINUOUS
 62
    7
 10
1309.8603075535602
 20
693.90384659343692
 11
1292.8603195131516
 21
693.90384659343692
  0
LINE
  8
_1-1_
  6
CONTINUOUS
 62
    7
 10
1309.8603075535602
 20
752.71068381526743
 11
1309.8603075535602
 21
693.90384659343692
  0
LINE
  8
_1-1_
  6
CONTINUOUS
 62
    7
 10
1237.8603324742851
 20
752.71068381526743
 11
1309.8603075535602
 21
752.71068381526743
  0
LINE
  8
_1-1_
  6
CONTINUOUS
 62
    7
 10
1235.860277271639
 20
633.7106363009301
 11
1235.860277271639
 21
667.71065612557311
  0
LINE
  8
_1-1_
  6
CONTINUOUS
 62
    7
 10
1292.8603195131516
 20
633.7106363009301
 11
1235.860277271639
 21
633.7106363009301
  0
LINE
  8
_1-1_
  6
CONTINUOUS
 62
    7
 10
1292.8603195131516
 20
667.71065612557311
 11
1292.8603195131516
 21
633.7106363009301
  0
LINE
  8
_1-1_
  6
CONTINUOUS
 62
    7
 10
1235.860277271639
 20
667.71065612557311
 11
1292.8603195131516
 21
667.71065612557311
  0
LINE
  8
_1-1_
  6
CONTINUOUS
 62
    7
 10
1235.860277271639
 20
667.71065612557311
 11
1235.860277271639
 21
722.21065123569088
  0
LINE
  8
_1-1_
  6
CONTINUOUS
 62
    7
 10
1292.8603195131516
 20
667.71065612557311
 11
1235.860277271639
 21
667.71065612557311
  0
LINE
  8
_1-1_
  6
CONTINUOUS
 62
    7
 10
1315.8602981861952
 20
681.21065692091531
 11
1315.8602981861952
 21
765.21065700928671
  0
LINE
  8
_1-1_
  6
CONTINUOUS
 62
    7
 10
1319.860321103836
 20
681.21065692091531
 11
1315.8602981861952
 21
681.21065692091531
  0
LINE
  8
_1-1_
  6
CONTINUOUS
 62
    7
 10
1319.860321103836
 20
765.21065700928671
 11
1319.860321103836
 21
681.21065692091531
  0
LINE
  8
_1-1_
  6
CONTINUOUS
 62
    7
 10
1315.8602981861952
 20
765.21065700928671
 11
1319.860321103836
 21
765.21065700928671
  0
LINE
  8
_1-1_
  6
CONTINUOUS
 62
    7
 10
1309.8603075535602
 20
752.71068381526743
 11
1315.8602981861952
 21
765.21065700928671
  0
LINE
  8
_1-1_
  6
CONTINUOUS
 62
    7
 10
1309.8603075535602
 20
693.71063011493459
 11
1315.8602981861952
 21
681.21065692091531
  0
LINE
  8
_1-1_
  6
CONTINUOUS
 62
    7
 10
1245.860290821915
 20
772.71062342816788
 11
1235.860277271639
 21
772.71062342816788
  0
LINE
  8
_1-1_
  6
CONTINUOUS
 62
    7
 10
1235.860277271639
 20
752.71068381526743
 11
1235.860277271639
 21
772.71062342816788
  0
LINE
  8
_1-1_
  6
CONTINUOUS
 62
    7
 10
1245.860290821915
 20
752.71068381526743
 11
1245.860290821915
 21
772.71062342816788
  0
LINE
  8
_1-1_
  6
CONTINUOUS
 62
    7
 10
1246.1103305301149
 20
633.7106363009301
 11
1246.1103305301149
 21
667.71065612557311
  0
LINE
  8
_1-1_
  6
CONTINUOUS
 62
    7
 10
1254.110288877745
 20
633.7106363009301
 11
1254.110288877745
 21
667.71065612557311
  0
LINE
  8
_1-1_
  6
CONTINUOUS
 62
    7
 10
1274.6103079070456
 20
633.7106363009301
 11
1274.6103079070456
 21
667.71065612557311
  0
LINE
  8
_1-1_
  6
CONTINUOUS
 62
    7
 10
1282.6103537423271
 20
633.7106363009301
 11
1282.6103537423271
 21
667.71065612557311
  0
LINE
  8
_1-1_
  6
CONTINUOUS
 62
    7
 10
873.99997696453067
 20
750.8564705277962
 11
879.98325745571537
 21
750.8564705277962
  0
LINE
  8
_1-1_
  6
CONTINUOUS
 62
    7
 10
883.78897029920893
 20
723.21063509318822
 11
880.38325099871417
 21
750.8564705277962
  0
LINE
  8
_1-1_
  6
CONTINUOUS
 62
    7
 10
742.00000807125139
 20
634.71066390225326
 11
742.00000807125139
 21
668.71063998307034
  0
LINE
  8
_1-1_
  6
CONTINUOUS
 62
    7
 10
771.9999612344277
 20
634.71066390225326
 11
742.00000807125139
 21
634.71066390225326
  0
LINE
  8
_1-1_
  6
CONTINUOUS
 62
    7
 10
742.00000807125139
 20
668.71063998307034
 11
753.99998933652182
 21
668.71063998307034
  0
LINE
  8
_1-1_
  6
CONTINUOUS
 62
    7
 10
885.99995822980134
 20
634.71066390225326
 11
856.00000506662479
 21
634.71066390225326
  0
LINE
  8
_1-1_
  6
CONTINUOUS
 62
    7
 10
885.99995822980134
 20
668.71063998307034
 11
885.99995822980134
 21
634.71066390225326
  0
LINE
  8
_1-1_
  6
CONTINUOUS
 62
    7
 10
873.99997696453067
 20
668.71063998307034
 11
885.99995822980134
 21
668.71063998307034
  0
LINE
  8
_1-1_
  6
CONTINUOUS
 62
    7
 10
742.00000807125139
 20
668.71063998307034
 11
742.00000807125139
 21
723.21063509318822
  0
LINE
  8
_1-1_
  6
CONTINUOUS
 62
    7
 10
885.99995822980134
 20
668.71063998307034
 11
873.99997696453067
 21
668.71063998307034
  0
LINE
  8
_1-1_
  6
CONTINUOUS
 62
    7
 10
753.99998933652182
 20
668.71063998307034
 11
742.00000807125139
 21
668.71063998307034
  0
LINE
  8
_1-1_
  6
CONTINUOUS
 62
    7
 10
885.99995822980134
 20
723.21063509318822
 11
885.99995822980134
 21
668.71063998307034
  0
LINE
  8
_1-1_
  6
CONTINUOUS
 62
    7
 10
742.00000807125139
 20
723.21063509318822
 11
753.99998933652182
 21
723.21063509318822
  0
LINE
  8
_1-1_
  6
CONTINUOUS
 62
    7
 10
873.99997696453067
 20
723.21063509318822
 11
885.99995822980134
 21
723.21063509318822
  0
LINE
  8
_1-1_
  6
CONTINUOUS
 62
    7
 10
742.00000807125139
 20
634.71066390225326
 11
769.99999351943313
 21
634.71066390225326
  0
LINE
  8
_1-1_
  6
CONTINUOUS
 62
    7
 10
885.99995822980134
 20
634.71066390225326
 11
857.99997278161936
 21
634.71066390225326
  0
LINE
  8
_1-1_
  6
CONTINUOUS
 62
    7
 10
691.99998406369718
 20
746.06477185105723
 11
753.99998933652182
 21
746.06477185105723
  0
LINE
  8
_1-1_
  6
CONTINUOUS
 62
    7
 10
691.99998406369718
 20
700.06481450496949
 11
738.20566862246233
 21
700.06481450496949
  0
LINE
  8
_1-1_
  6
CONTINUOUS
 62
    7
 10
658.00000798287999
 20
695.96063753812928
 11
658.00000798287999
 21
750.16899256172326
  0
LINE
  8
_1-1_
  6
CONTINUOUS
 62
    7
 10
691.99998406369718
 20
695.96063753812928
 11
658.00000798287999
 21
695.96063753812928
  0
LINE
  8
_1-1_
  6
CONTINUOUS
 62
    7
 10
691.99998406369718
 20
750.16899256172326
 11
691.99998406369718
 21
695.96063753812928
  0
LINE
  8
_1-1_
  6
CONTINUOUS
 62
    7
 10
658.00000798287999
 20
750.16899256172326
 11
691.99998406369718
 21
750.16899256172326
  0
LINE
  8
_1-1_
  6
CONTINUOUS
 62
    7
 10
658.00000798287999
 20
740.61691578750901
 11
691.99998406369718
 21
740.61691578750901
  0
LINE
  8
_1-1_
  6
CONTINUOUS
 62
    7
 10
658.00000798287999
 20
732.6168699522276
 11
691.99998406369718
 21
732.6168699522276
  0
LINE
  8
_1-1_
  6
CONTINUOUS
 62
    7
 10
658.00000798287999
 20
713.512716403799
 11
691.99998406369718
 21
713.512716403799
  0
LINE
  8
_1-1_
  6
CONTINUOUS
 62
    7
 10
658.00000798287999
 20
705.51271431234352
 11
691.99998406369718
 21
705.51271431234352
  0
LINE
  8
_1-1_
  6
CONTINUOUS
 62
    7
 10
753.99998933652182
 20
773.71060728566522
 11
745.80572091474494
 21
773.71060728566522
  0
LINE
  8
_1-1_
  6
CONTINUOUS
 62
    7
 10
742.00000807125139
 20
746.06477185105723
 11
745.40572737174602
 21
773.71060728566522
  0
LINE
  8
_1-1_
  6
CONTINUOUS
 62
    7
 10
753.99998933652182
 20
663.21064127918373
 11
753.99998933652182
 21
783.21062890719259
  0
LINE
  8
_1-1_
  6
CONTINUOUS
 62
    7
 10
873.99997696453067
 20
663.21064127918373
 11
856.00000506662479
 21
663.21064127918373
  0
LINE
  8
_1-1_
  6
CONTINUOUS
 62
    7
 10
771.9999612344277
 20
663.21064127918373
 11
753.99998933652182
 21
663.21064127918373
  0
LINE
  8
_1-1_
  6
CONTINUOUS
 62
    7
 10
873.99997696453067
 20
783.21062890719259
 11
873.99997696453067
 21
663.21064127918373
  0
LINE
  8
_1-1_
  6
CONTINUOUS
 62
    7
 10
753.99998933652182
 20
783.21062890719259
 11
873.99997696453067
 21
783.21062890719259
  0
LINE
  8
_1-1_
  6
CONTINUOUS
 62
    7
 10
771.9999612344277
 20
546.21064896749249
 11
771.9999612344277
 21
766.21064086678405
  0
LINE
  8
_1-1_
  6
CONTINUOUS
 62
    7
 10
856.00000506662479
 20
546.21064896749249
 11
771.9999612344277
 21
546.21064896749249
  0
LINE
  8
_1-1_
  6
CONTINUOUS
 62
    7
 10
856.00000506662479
 20
766.21064086678405
 11
856.00000506662479
 21
546.21064896749249
  0
LINE
  8
_1-1_
  6
CONTINUOUS
 62
    7
 10
771.9999612344277
 20
766.21064086678405
 11
856.00000506662479
 21
766.21064086678405
  0
LINE
  8
_1-1_
  6
CONTINUOUS
 62
    7
 10
1298.8340638503144
 20
703.60780193078472
 11
1298.8340638503144
 21
741.60780092924256
  0
LINE
  8
_1-1_
  6
CONTINUOUS
 62
    7
 10
1337.857580884543
 20
703.60780193078472
 11
1298.8340638503144
 21
703.60780193078472
  0
LINE
  8
_1-1_
  6
CONTINUOUS
 62
    7
 10
1298.8340638503144
 20
741.60780092924256
 11
1337.857580884543
 21
741.60780092924256
  0
LINE
  8
_1-1_
  6
CONTINUOUS
 62
    7
 10
1304.5841022624013
 20
703.64660270425804
 11
1303.6192009531853
 21
701.62948740955483
  0
LINE
  8
_1-1_
  6
CONTINUOUS
 62
    7
 10
1303.9209458634659
 20
741.64087126153777
 11
1304.5841022624013
 21
703.64660270425804
  0
LINE
  8
_1-1_
  6
CONTINUOUS
 62
    7
 10
1302.8861419206419
 20
743.62307898326264
 11
1303.9209458634659
 21
741.64087126153777
  0
LINE
  8
_1-1_
  6
CONTINUOUS
 62
    7
 10
1301.9212406114261
 20
741.60596368855954
 11
1302.8861419206419
 21
743.62307898326264
  0
LINE
  8
_1-1_
  6
CONTINUOUS
 62
    7
 10
1302.5843970103615
 20
703.6116951312797
 11
1301.9212406114261
 21
741.60596368855954
  0
LINE
  8
_1-1_
  6
CONTINUOUS
 62
    7
 10
1303.6192009531853
 20
701.62948740955483
 11
1302.5843970103615
 21
703.6116951312797
  0
LINE
  8
_1-1_
  6
CONTINUOUS
 62
    7
 10
1307.598051859145
 20
703.64660270425804
 11
1306.6331505499288
 21
701.62948740955483
  0
LINE
  8
_1-1_
  6
CONTINUOUS
 62
    7
 10
1306.9348954602096
 20
741.64087126153777
 11
1307.598051859145
 21
703.64660270425804
  0
LINE
  8
_1-1_
  6
CONTINUOUS
 62
    7
 10
1305.9001790050374
 20
743.62307898326264
 11
1306.9348954602096
 21
741.64087126153777
  0
LINE
  8
_1-1_
  6
CONTINUOUS
 62
    7
 10
1304.9351902081698
 20
741.60596368855954
 11
1305.9001790050374
 21
743.62307898326264
  0
LINE
  8
_1-1_
  6
CONTINUOUS
 62
    7
 10
1305.5984340947566
 20
703.6116951312797
 11
1304.9351902081698
 21
741.60596368855954
  0
LINE
  8
_1-1_
  6
CONTINUOUS
 62
    7
 10
1306.6331505499288
 20
701.62948740955483
 11
1305.5984340947566
 21
703.6116951312797
  0
LINE
  8
_1-1_
  6
CONTINUOUS
 62
    7
 10
1310.6120889435401
 20
703.64660270425804
 11
1309.6471001466728
 21
701.62948740955483
  0
LINE
  8
_1-1_
  6
CONTINUOUS
 62
    7
 10
1309.9488450569536
 20
741.64087126153777
 11
1310.6120889435401
 21
703.64660270425804
  0
LINE
  8
_1-1_
  6
CONTINUOUS
 62
    7
 10
1308.9141286017812
 20
743.62307898326264
 11
1309.9488450569536
 21
741.64087126153777
  0
LINE
  8
_1-1_
  6
CONTINUOUS
 62
    7
 10
1307.9491398049138
 20
741.60596368855954
 11
1308.9141286017812
 21
743.62307898326264
  0
LINE
  8
_1-1_
  6
CONTINUOUS
 62
    7
 10
1308.6123836915003
 20
703.6116951312797
 11
1307.9491398049138
 21
741.60596368855954
  0
LINE
  8
_1-1_
  6
CONTINUOUS
 62
    7
 10
1309.6471001466728
 20
701.62948740955483
 11
1308.6123836915003
 21
703.6116951312797
  0
LINE
  8
_1-1_
  6
CONTINUOUS
 62
    7
 10
1313.7355730800552
 20
703.64660270425804
 11
1312.7706717708395
 21
701.62948740955483
  0
LINE
  8
_1-1_
  6
CONTINUOUS
 62
    7
 10
1313.0724166811203
 20
741.64087126153777
 11
1313.7355730800552
 21
703.64660270425804
  0
LINE
  8
_1-1_
  6
CONTINUOUS
 62
    7
 10
1312.0376127382963
 20
743.62307898326264
 11
1313.0724166811203
 21
741.64087126153777
  0
LINE
  8
_1-1_
  6
CONTINUOUS
 62
    7
 10
1311.0727114290805
 20
741.60596368855954
 11
1312.0376127382963
 21
743.62307898326264
  0
LINE
  8
_1-1_
  6
CONTINUOUS
 62
    7
 10
1311.7358678280154
 20
703.6116951312797
 11
1311.0727114290805
 21
741.60596368855954
  0
LINE
  8
_1-1_
  6
CONTINUOUS
 62
    7
 10
1312.7706717708395
 20
701.62948740955483
 11
1311.7358678280154
 21
703.6116951312797
  0
LINE
  8
_1-1_
  6
CONTINUOUS
 62
    7
 10
1316.859144704222
 20
703.64660270425804
 11
1315.8941559073546
 21
701.62948740955483
  0
LINE
  8
_1-1_
  6
CONTINUOUS
 62
    7
 10
1316.1959008176354
 20
741.64087126153777
 11
1316.859144704222
 21
703.64660270425804
  0
LINE
  8
_1-1_
  6
CONTINUOUS
 62
    7
 10
1315.161184362463
 20
743.62307898326264
 11
1316.1959008176354
 21
741.64087126153777
  0
LINE
  8
_1-1_
  6
CONTINUOUS
 62
    7
 10
1314.1961955655956
 20
741.60596368855954
 11
1315.161184362463
 21
743.62307898326264
  0
LINE
  8
_1-1_
  6
CONTINUOUS
 62
    7
 10
1314.8594394521822
 20
703.6116951312797
 11
1314.1961955655956
 21
741.60596368855954
  0
LINE
  8
_1-1_
  6
CONTINUOUS
 62
    7
 10
1315.8941559073546
 20
701.62948740955483
 11
1314.8594394521822
 21
703.6116951312797
  0
LINE
  8
_1-1_
  6
CONTINUOUS
 62
    7
 10
1319.9826288407373
 20
703.64660270425804
 11
1319.0177275315214
 21
701.62948740955483
  0
LINE
  8
_1-1_
  6
CONTINUOUS
 62
    7
 10
1319.3194724418022
 20
741.64087126153777
 11
1319.9826288407373
 21
703.64660270425804
  0
LINE
  8
_1-1_
  6
CONTINUOUS
 62
    7
 10
1318.2846684989781
 20
743.62307898326264
 11
1319.3194724418022
 21
741.64087126153777
  0
LINE
  8
_1-1_
  6
CONTINUOUS
 62
    7
 10
1317.3197671897624
 20
741.60596368855954
 11
1318.2846684989781
 21
743.62307898326264
  0
LINE
  8
_1-1_
  6
CONTINUOUS
 62
    7
 10
1317.9829235886973
 20
703.6116951312797
 11
1317.3197671897624
 21
741.60596368855954
  0
LINE
  8
_1-1_
  6
CONTINUOUS
 62
    7
 10
1319.0177275315214
 20
701.62948740955483
 11
1317.9829235886973
 21
703.6116951312797
  0
LINE
  8
_1-1_
  6
CONTINUOUS
 62
    7
 10
1323.1062004649041
 20
703.64660270425804
 11
1322.1412116680367
 21
701.62948740955483
  0
LINE
  8
_1-1_
  6
CONTINUOUS
 62
    7
 10
1322.4429565783171
 20
741.64087126153777
 11
1323.1062004649041
 21
703.64660270425804
  0
LINE
  8
_1-1_
  6
CONTINUOUS
 62
    7
 10
1321.4082401231449
 20
743.62307898326264
 11
1322.4429565783171
 21
741.64087126153777
  0
LINE
  8
_1-1_
  6
CONTINUOUS
 62
    7
 10
1320.4432513262773
 20
741.60596368855954
 11
1321.4082401231449
 21
743.62307898326264
  0
LINE
  8
_1-1_
  6
CONTINUOUS
 62
    7
 10
1321.106495212864
 20
703.6116951312797
 11
1320.4432513262773
 21
741.60596368855954
  0
LINE
  8
_1-1_
  6
CONTINUOUS
 62
    7
 10
1322.1412116680367
 20
701.62948740955483
 11
1321.106495212864
 21
703.6116951312797
  0
LINE
  8
_1-1_
  6
CONTINUOUS
 62
    7
 10
1326.2296846014192
 20
703.64660270425804
 11
1325.2647832922034
 21
701.62948740955483
  0
LINE
  8
_1-1_
  6
CONTINUOUS
 62
    7
 10
1325.5665282024838
 20
741.64087126153777
 11
1326.2296846014192
 21
703.64660270425804
  0
LINE
  8
_1-1_
  6
CONTINUOUS
 62
    7
 10
1324.5317242596598
 20
743.62307898326264
 11
1325.5665282024838
 21
741.64087126153777
  0
LINE
  8
_1-1_
  6
CONTINUOUS
 62
    7
 10
1323.566822950444
 20
741.60596368855954
 11
1324.5317242596598
 21
743.62307898326264
  0
LINE
  8
_1-1_
  6
CONTINUOUS
 62
    7
 10
1324.2299793493794
 20
703.6116951312797
 11
1323.566822950444
 21
741.60596368855954
  0
LINE
  8
_1-1_
  6
CONTINUOUS
 62
    7
 10
1325.2647832922034
 20
701.62948740955483
 11
1324.2299793493794
 21
703.6116951312797
  0
LINE
  8
_1-1_
  6
CONTINUOUS
 62
    7
 10
1329.4627907653571
 20
703.64660270425804
 11
1328.4978894561414
 21
701.62948740955483
  0
LINE
  8
_1-1_
  6
CONTINUOUS
 62
    7
 10
1328.7996343664222
 20
741.64087126153777
 11
1329.4627907653571
 21
703.64660270425804
  0
LINE
  8
_1-1_
  6
CONTINUOUS
 62
    7
 10
1327.7648304235981
 20
743.62307898326264
 11
1328.7996343664222
 21
741.64087126153777
  0
LINE
  8
_1-1_
  6
CONTINUOUS
 62
    7
 10
1326.7999291143819
 20
741.60596368855954
 11
1327.7648304235981
 21
743.62307898326264
  0
LINE
  8
_1-1_
  6
CONTINUOUS
 62
    7
 10
1327.4630855133173
 20
703.6116951312797
 11
1326.7999291143819
 21
741.60596368855954
  0
LINE
  8
_1-1_
  6
CONTINUOUS
 62
    7
 10
1328.4978894561414
 20
701.62948740955483
 11
1327.4630855133173
 21
703.6116951312797
  0
LINE
  8
_1-1_
  6
CONTINUOUS
 62
    7
 10
1332.8054314690667
 20
703.64660270425804
 11
1331.8405301598509
 21
701.62948740955483
  0
LINE
  8
_1-1_
  6
CONTINUOUS
 62
    7
 10
1332.1422750701313
 20
741.64087126153777
 11
1332.8054314690667
 21
703.64660270425804
  0
LINE
  8
_1-1_
  6
CONTINUOUS
 62
    7
 10
1331.1074711273072
 20
743.62307898326264
 11
1332.1422750701313
 21
741.64087126153777
  0
LINE
  8
_1-1_
  6
CONTINUOUS
 62
    7
 10
1330.1425698180915
 20
741.60596368855954
 11
1331.1074711273072
 21
743.62307898326264
  0
LINE
  8
_1-1_
  6
CONTINUOUS
 62
    7
 10
1330.8057262170269
 20
703.6116951312797
 11
1330.1425698180915
 21
741.60596368855954
  0
LINE
  8
_1-1_
  6
CONTINUOUS
 62
    7
 10
1331.8405301598509
 20
701.62948740955483
 11
1330.8057262170269
 21
703.6116951312797
  0
LINE
  8
_1-1_
  6
CONTINUOUS
 62
    7
 10
1301.5608789745902
 20
703.66138811737414
 11
1300.5959776653744
 21
701.64427282267081
  0
LINE
  8
_1-1_
  6
CONTINUOUS
 62
    7
 10
1300.8977225756553
 20
741.65565667465387
 11
1301.5608789745902
 21
703.66138811737414
  0
LINE
  8
_1-1_
  6
CONTINUOUS
 62
    7
 10
1299.8629186328312
 20
743.63786439637875
 11
1300.8977225756553
 21
741.65565667465387
  0
LINE
  8
_1-1_
  6
CONTINUOUS
 62
    7
 10
1298.8980173236155
 20
741.62074910167564
 11
1299.8629186328312
 21
743.63786439637875
  0
LINE
  8
_1-1_
  6
CONTINUOUS
 62
    7
 10
1299.5611737225504
 20
703.62648054439592
 11
1298.8980173236155
 21
741.62074910167564
  0
LINE
  8
_1-1_
  6
CONTINUOUS
 62
    7
 10
1300.5959776653744
 20
701.64427282267081
 11
1299.5611737225504
 21
703.62648054439592
  0
LINE
  8
_1-1_
  6
CONTINUOUS
 62
    7
 10
1350.8575460073109
 20
662.21065742168651
 11
1338.8575647420405
 21
662.21065742168651
  0
LINE
  8
_1-1_
  6
CONTINUOUS
 62
    7
 10
1351.8575298648082
 20
781.21066119219802
 11
1351.8575298648082
 21
663.21064127918373
  0
LINE
  8
_1-1_
  6
CONTINUOUS
 62
    7
 10
1338.8575647420405
 20
782.21064504969536
 11
1350.8575460073109
 21
782.21064504969536
  0
LINE
  8
_1-1_
  6
CONTINUOUS
 62
    7
 10
1634.9296882069709
 20
711.32460649409336
 11
1633.1921834466998
 21
727.85439215111455
  0
LINE
  8
_1-1_
  6
CONTINUOUS
 62
    7
 10
1682.66662538742
 20
716.34197956806906
 11
1634.9296882069709
 21
711.32460649409336
  0
LINE
  8
_1-1_
  6
CONTINUOUS
 62
    7
 10
1681.3683086380533
 20
728.69527971422349
 11
1682.66662538742
 21
716.34197956806906
  0
LINE
  8
_1-1_
  6
CONTINUOUS
 62
    7
 10
1418.7326532901484
 20
684.94611718019451
 11
1419.0177755466298
 21
685.42025650790288
  0
LINE
  8
_1-1_
  6
CONTINUOUS
 62
    7
 10
1419.0177755466298
 20
685.42025650790288
 11
1419.3071846980386
 21
685.89343347144393
  0
LINE
  8
_1-1_
  6
CONTINUOUS
 62
    7
 10
1419.3071846980386
 20
685.89343347144393
 11
1419.6009682320257
 21
686.36564807081766
  0
LINE
  8
_1-1_
  6
CONTINUOUS
 62
    7
 10
1419.6009682320257
 20
686.36564807081766
 11
1419.8990386609403
 21
686.83690030602406
  0
LINE
  8
_1-1_
  6
CONTINUOUS
 62
    7
 10
1419.8990386609403
 20
686.83690030602406
 11
1420.2014834724337
 21
687.30719017706315
  0
LINE
  8
_1-1_
  6
CONTINUOUS
 62
    7
 10
1420.2014834724337
 20
687.30719017706315
 11
1420.5082151788542
 21
687.77651768393503
  0
LINE
  8
_1-1_
  6
CONTINUOUS
 62
    7
 10
1420.5082151788542
 20
687.77651768393503
 11
1420.8193212678532
 21
688.24483908281366
  0
LINE
  8
_1-1_
  6
CONTINUOUS
 62
    7
 10
1420.8193212678532
 20
688.24483908281366
 11
1421.1347142517795
 21
688.71224186135066
  0
LINE
  8
_1-1_
  6
CONTINUOUS
 62
    7
 10
1421.1347142517795
 20
688.71224186135066
 11
1424.1880332917319
 21
692.89178944002242
  0
LINE
  8
_1-1_
  6
CONTINUOUS
 62
    7
 10
1424.1880332917319
 20
692.89178944002242
 11
1427.5086271072446
 21
696.84452528198699
  0
LINE
  8
_1-1_
  6
CONTINUOUS
 62
    7
 10
1427.5086271072446
 20
696.84452528198699
 11
1431.0963207230143
 21
700.57044938724471
  0
LINE
  8
_1-1_
  6
CONTINUOUS
 62
    7
 10
1431.0963207230143
 20
700.57044938724471
 11
1434.9511141390415
 21
704.06960549962105
  0
LINE
  8
_1-1_
  6
CONTINUOUS
 62
    7
 10
1434.9511141390415
 20
704.06960549962105
 11
1439.0731823306285
 21
707.3419498752902
  0
LINE
  8
_1-1_
  6
CONTINUOUS
 62
    7
 10
1439.0731823306285
 20
707.3419498752902
 11
1443.4624378101244
 21
710.3874825142525
  0
LINE
  8
_1-1_
  6
CONTINUOUS
 62
    7
 10
1443.4624378101244
 20
710.3874825142525
 11
1448.1187930898775
 21
713.20620341650761
  0
LINE
  8
_1-1_
  6
CONTINUOUS
 62
    7
 10
1448.1187930898775
 20
713.20620341650761
 11
1453.0424231451909
 21
715.79815632588156
  0
LINE
  8
_1-1_
  6
CONTINUOUS
 62
    7
 10
1453.0424231451909
 20
715.79815632588156
 11
1458.1484649540375
 21
718.12174086405037
  0
LINE
  8
_1-1_
  6
CONTINUOUS
 62
    7
 10
1458.1484649540375
 20
718.12174086405037
 11
1463.3523179573442
 21
720.13557537181953
  0
LINE
  8
_1-1_
  6
CONTINUOUS
 62
    7
 10
1463.3523179573442
 20
720.13557537181953
 11
1468.6539821551114
 21
721.83957236153731
  0
LINE
  8
_1-1_
  6
CONTINUOUS
 62
    7
 10
1468.6539821551114
 20
721.83957236153731
 11
1474.053370059687
 21
723.23373183320382
  0
LINE
  8
_1-1_
  6
CONTINUOUS
 62
    7
 10
1474.053370059687
 20
723.23373183320382
 11
1479.5505691587234
 21
724.31809753064488
  0
LINE
  8
_1-1_
  6
CONTINUOUS
 62
    7
 10
1479.5505691587234
 20
724.31809753064488
 11
1485.1455794522201
 21
725.09262571003444
  0
LINE
  8
_1-1_
  6
CONTINUOUS
 62
    7
 10
1485.1455794522201
 20
725.09262571003444
 11
1490.8384009401768
 21
725.55736011519855
  0
LINE
  8
_1-1_
  6
CONTINUOUS
 62
    7
 10
1490.8384009401768
 20
725.55736011519855
 11
1496.6290336225943
 21
725.71225700231128
  0
LINE
  8
_1-1_
  6
CONTINUOUS
 62
    7
 10
1351.8630415868574
 20
682.7003091642755
 11
1414.7224818049249
 21
682.7003091642755
  0
LINE
  8
_1-1_
  6
CONTINUOUS
 62
    7
 10
1351.8630415868574
 20
757.70027955986825
 11
1351.8630415868574
 21
682.7003091642755
  0
LINE
  8
_1-1_
  6
CONTINUOUS
 62
    7
 10
1689.8630096553372
 20
757.70027955986825
 11
1351.8630415868574
 21
757.70027955986825
  0
LINE
  8
_1-1_
  6
CONTINUOUS
 62
    7
 10
1689.8630096553372
 20
728.84357128364229
 11
1689.8630096553372
 21
757.70027955986825
  0
LINE
  8
_1-1_
  6
CONTINUOUS
 62
    7
 10
1502.2152951509336
 20
725.56816484016792
 11
1689.8630096553372
 21
728.84357128364229
  0
LINE
  8
_1-1_
  6
CONTINUOUS
 62
    7
 10
1496.6290336225943
 20
725.71225700231128
 11
1497.3315594647379
 21
725.71002606719617
  0
LINE
  8
_1-1_
  6
CONTINUOUS
 62
    7
 10
1497.3315594647379
 20
725.71002606719617
 11
1498.0326855044566
 21
725.7032457741991
  0
LINE
  8
_1-1_
  6
CONTINUOUS
 62
    7
 10
1498.0326855044566
 20
725.7032457741991
 11
1498.7327616923562
 21
725.69200361097171
  0
LINE
  8
_1-1_
  6
CONTINUOUS
 62
    7
 10
1498.7327616923562
 20
725.69200361097171
 11
1499.431613053134
 21
725.6762558336884
  0
LINE
  8
_1-1_
  6
CONTINUOUS
 62
    7
 10
1499.431613053134
 20
725.6762558336884
 11
1500.1294145620927
 21
725.65595869852302
  0
LINE
  8
_1-1_
  6
CONTINUOUS
 62
    7
 10
1500.1294145620927
 20
725.65595869852302
 11
1500.8258162686263
 21
725.63119969312754
  0
LINE
  8
_1-1_
  6
CONTINUOUS
 62
    7
 10
1500.8258162686263
 20
725.63119969312754
 11
1501.5211681233409
 21
725.60193507367569
  0
LINE
  8
_1-1_
  6
CONTINUOUS
 62
    7
 10
1501.5211681233409
 20
725.60193507367569
 11
1502.2152951509336
 21
725.56816484016792
  0
LINE
  8
_1-0_
  6
CONTINUOUS
 62
    7
 10
779.000023212212
 20
1416.9807130673676
 11
779.04691659345588
 21
1412.2932121836538
  0
LINE
  8
_1-0_
  6
CONTINUOUS
 62
    7
 10
779.04691659345588
 20
1412.2932121836538
 11
779.18750924953611
 21
1408.2307230827892
  0
LINE
  8
_1-0_
  6
CONTINUOUS
 62
    7
 10
779.18750924953611
 20
1408.2307230827892
 11
779.42188866810443
 21
1404.7931582771212
  0
LINE
  8
_1-0_
  6
CONTINUOUS
 62
    7
 10
779.42188866810443
 20
1404.7931582771212
 11
779.74996736150899
 21
1401.9806927419538
  0
LINE
  8
_1-0_
  6
CONTINUOUS
 62
    7
 10
779.74996736150899
 20
1401.9806927419538
 11
780.17183281740154
 21
1399.7931515019832
  0
LINE
  8
_1-0_
  6
CONTINUOUS
 62
    7
 10
780.17183281740154
 20
1399.7931515019832
 11
780.68748503578206
 21
1398.2307095325132
  0
LINE
  8
_1-0_
  6
CONTINUOUS
 62
    7
 10
780.68748503578206
 20
1398.2307095325132
 11
781.29683652899894
 21
1397.2931918582401
  0
LINE
  8
_1-0_
  6
CONTINUOUS
 62
    7
 10
781.29683652899894
 20
1397.2931918582401
 11
781.9999747847038
 21
1396.9806859668156
  0
LINE
  8
_1-0_
  6
CONTINUOUS
 62
    7
 10
781.9999747847038
 20
1396.9806859668156
 11
845.99999151634893
 21
1396.9806859668156
  0
LINE
  8
_1-0_
  6
CONTINUOUS
 62
    7
 10
845.99999151634893
 20
1396.9806859668156
 11
846.70312977205367
 21
1397.2931918582401
  0
LINE
  8
_1-0_
  6
CONTINUOUS
 62
    7
 10
846.70312977205367
 20
1397.2931918582401
 11
847.31248126527043
 21
1398.2307095325132
  0
LINE
  8
_1-0_
  6
CONTINUOUS
 62
    7
 10
847.31248126527043
 20
1398.2307095325132
 11
847.82813348365096
 21
1399.7931515019832
  0
LINE
  8
_1-0_
  6
CONTINUOUS
 62
    7
 10
847.82813348365096
 20
1399.7931515019832
 11
848.2499989395435
 21
1401.9806927419538
  0
LINE
  8
_1-0_
  6
CONTINUOUS
 62
    7
 10
848.2499989395435
 20
1401.9806927419538
 11
848.57816512059969
 21
1404.7931582771212
  0
LINE
  8
_1-0_
  6
CONTINUOUS
 62
    7
 10
848.57816512059969
 20
1404.7931582771212
 11
848.81245705151639
 21
1408.2307230827892
  0
LINE
  8
_1-0_
  6
CONTINUOUS
 62
    7
 10
848.81245705151639
 20
1408.2307230827892
 11
848.95313719524836
 21
1412.2932121836538
  0
LINE
  8
_1-0_
  6
CONTINUOUS
 62
    7
 10
848.95313719524836
 20
1412.2932121836538
 11
849.00003057649224
 21
1416.9807130673676
  0
LINE
  8
_1-0_
  6
CONTINUOUS
 62
    7
 10
849.00003057649224
 20
1416.9807130673676
 11
779.000023212212
 21
1416.9807130673676
  0
LINE
  8
_1-0_
  6
CONTINUOUS
 62
    7
 10
856.00000506662479
 20
1416.9807130673676
 11
856.00000506662479
 21
1360.9806546833522
  0
LINE
  8
_1-0_
  6
CONTINUOUS
 62
    7
 10
851.99998214898415
 20
1416.9807130673676
 11
856.00000506662479
 21
1416.9807130673676
  0
LINE
  8
_1-0_
  6
CONTINUOUS
 62
    7
 10
851.99998214898415
 20
1396.9806859668156
 11
851.99998214898415
 21
1416.9807130673676
  0
LINE
  8
_1-0_
  6
CONTINUOUS
 62
    7
 10
771.9999612344277
 20
1416.9807130673676
 11
771.9999612344277
 21
1360.9806546833522
  0
LINE
  8
_1-0_
  6
CONTINUOUS
 62
    7
 10
775.99998415206846
 20
1416.9807130673676
 11
771.9999612344277
 21
1416.9807130673676
  0
LINE
  8
_1-0_
  6
CONTINUOUS
 62
    7
 10
775.99998415206846
 20
1396.9806859668156
 11
775.99998415206846
 21
1416.9807130673676
  0
LINE
  8
_1-1_
  6
CONTINUOUS
 62
    7
 10
856.00000506662479
 20
1360.9806546833522
 11
771.9999612344277
 21
1360.9806546833522
  0
LINE
  8
_1-1_
  6
CONTINUOUS
 62
    7
 10
771.9999612344277
 20
1360.9806546833522
 11
771.9999612344277
 21
1396.9806859668156
  0
LINE
  8
_1-1_
  6
CONTINUOUS
 62
    7
 10
771.9999612344277
 20
1396.9806859668156
 11
856.00000506662479
 21
1396.9806859668156
  0
LINE
  8
_1-1_
  6
CONTINUOUS
 62
    7
 10
856.00000506662479
 20
1396.9806859668156
 11
856.00000506662479
 21
1360.9806546833522
  0
LINE
  8
_1-2_
  6
CONTINUOUS
 62
    7
 10
771.9999612344277
 20
1475.2106567147155
 11
771.9999612344277
 21
1416.9807130673676
  0
LINE
  8
_1-2_
  6
CONTINUOUS
 62
    7
 10
771.9999612344277
 20
1416.9807130673676
 11
856.00000506662479
 21
1416.9807130673676
  0
LINE
  8
_1-2_
  6
CONTINUOUS
 62
    7
 10
856.00000506662479
 20
1416.9807130673676
 11
856.00000506662479
 21
1475.2106567147155
  0
LINE
  8
_1-2_
  6
CONTINUOUS
 62
    7
 10
771.9999612344277
 20
1483.2107025499968
 11
771.9999612344277
 21
1501.0681570634879
  0
LINE
  8
_1-2_
  6
CONTINUOUS
 62
    7
 10
771.9999612344277
 20
1501.0681570634879
 11
856.00000506662479
 21
1501.0681570634879
  0
LINE
  8
_1-2_
  6
CONTINUOUS
 62
    7
 10
856.00000506662479
 20
1501.0681570634879
 11
856.00000506662479
 21
1483.2107025499968
  0
LINE
  8
_1-1_
  6
CONTINUOUS
 62
    7
 10
753.99998933652182
 20
1483.2107025499968
 11
873.99997696453067
 21
1483.2107025499968
  0
LINE
  8
_1-1_
  6
CONTINUOUS
 62
    7
 10
873.99997696453067
 20
1483.2107025499968
 11
873.99997696453067
 21
1475.2106567147155
  0
LINE
  8
_1-1_
  6
CONTINUOUS
 62
    7
 10
873.99997696453067
 20
1475.2106567147155
 11
753.99998933652182
 21
1475.2106567147155
  0
LINE
  8
_1-1_
  6
CONTINUOUS
 62
    7
 10
753.99998933652182
 20
1475.2106567147155
 11
753.99998933652182
 21
1483.2107025499968
  0
LINE
  8
_1-1_
  6
CONTINUOUS
 62
    7
 10
771.9999612344277
 20
1505.06826746878
 11
856.00000506662479
 21
1505.06826746878
  0
LINE
  8
_1-1_
  6
CONTINUOUS
 62
    7
 10
856.00000506662479
 20
1505.06826746878
 11
856.00000506662479
 21
1501.0681570634879
  0
LINE
  8
_1-1_
  6
CONTINUOUS
 62
    7
 10
856.00000506662479
 20
1501.0681570634879
 11
771.9999612344277
 21
1501.0681570634879
  0
LINE
  8
_1-1_
  6
CONTINUOUS
 62
    7
 10
771.9999612344277
 20
1501.0681570634879
 11
771.9999612344277
 21
1505.06826746878
  0
LINE
  8
_1-1_
  6
CONTINUOUS
 62
    7
 10
784.5000219160986
 20
1511.0681706137639
 11
771.9999612344277
 21
1505.06826746878
  0
LINE
  8
_1-1_
  6
CONTINUOUS
 62
    7
 10
843.50003187260563
 20
1511.0681706137639
 11
856.00000506662479
 21
1505.06826746878
  0
LINE
  8
_1-1_
  6
CONTINUOUS
 62
    7
 10
784.5000219160986
 20
1511.0681706137639
 11
843.40572018420835
 21
1511.0681706137639
  0
LINE
  8
_1-1_
  6
CONTINUOUS
 62
    7
 10
658.00000798287999
 20
1583.6724229024642
 11
691.99998406369718
 21
1583.6724229024642
  0
LINE
  8
_1-1_
  6
CONTINUOUS
 62
    7
 10
691.99998406369718
 20
1583.6724229024642
 11
691.99998406369718
 21
1529.4640241350444
  0
LINE
  8
_1-1_
  6
CONTINUOUS
 62
    7
 10
691.99998406369718
 20
1529.4640241350444
 11
658.00000798287999
 21
1529.4640241350444
  0
LINE
  8
_1-1_
  6
CONTINUOUS
 62
    7
 10
658.00000798287999
 20
1529.4640241350444
 11
658.00000798287999
 21
1583.6724229024642
  0
LINE
  8
_1-1_
  6
CONTINUOUS
 62
    7
 10
658.00000798287999
 20
1574.12034612825
 11
691.99998406369718
 21
1574.12034612825
  0
LINE
  8
_1-1_
  6
CONTINUOUS
 62
    7
 10
658.00000798287999
 20
1566.1203002929687
 11
691.99998406369718
 21
1566.1203002929687
  0
LINE
  8
_1-1_
  6
CONTINUOUS
 62
    7
 10
658.00000798287999
 20
1547.0161467445403
 11
691.99998406369718
 21
1547.0161467445403
  0
LINE
  8
_1-1_
  6
CONTINUOUS
 62
    7
 10
658.00000798287999
 20
1539.016100909259
 11
691.99998406369718
 21
1539.016100909259
  0
LINE
  8
_1-1_
  6
CONTINUOUS
 62
    7
 10
691.99998406369718
 20
1579.5682021917983
 11
882.79922249694573
 21
1579.5682021917983
  0
LINE
  8
_1-1_
  6
CONTINUOUS
 62
    7
 10
691.99998406369718
 20
1533.5682448457105
 11
769.99999351943313
 21
1533.5682448457105
  0
LINE
  8
_1-1_
  6
CONTINUOUS
 62
    7
 10
784.5000219160986
 20
1511.0681706137639
 11
784.5000219160986
 21
1528.5681505829211
  0
LINE
  8
_1-1_
  6
CONTINUOUS
 62
    7
 10
843.50003187260563
 20
1511.0681706137639
 11
843.50003187260563
 21
1528.5681505829211
  0
LINE
  8
_1-1_
  6
CONTINUOUS
 62
    7
 10
742.00000807125139
 20
1569.5681886415223
 11
742.00000807125139
 21
1579.5682021917983
  0
LINE
  8
_1-1_
  6
CONTINUOUS
 62
    7
 10
762.00003517180335
 20
1579.5682021917983
 11
742.00000807125139
 21
1579.5682021917983
  0
LINE
  8
_1-1_
  6
CONTINUOUS
 62
    7
 10
762.00003517180335
 20
1569.5681886415223
 11
742.00000807125139
 21
1569.5681886415223
  0
LINE
  8
_1-1_
  6
CONTINUOUS
 62
    7
 10
762.00003517180335
 20
1569.5681886415223
 11
762.00003517180335
 21
1579.5682021917983
  0
LINE
  8
_1-1_
  6
CONTINUOUS
 62
    7
 10
769.99999351943313
 20
1533.5682448457105
 11
784.5000219160986
 21
1528.5681505829211
  0
LINE
  8
_1-1_
  6
CONTINUOUS
 62
    7
 10
862.79919539639377
 20
1569.5681886415223
 11
862.79919539639377
 21
1579.5682021917983
  0
LINE
  8
_1-1_
  6
CONTINUOUS
 62
    7
 10
882.79922249694573
 20
1579.5682021917983
 11
862.79919539639377
 21
1579.5682021917983
  0
LINE
  8
_1-1_
  6
CONTINUOUS
 62
    7
 10
882.79922249694573
 20
1569.5681886415223
 11
862.79919539639377
 21
1569.5681886415223
  0
LINE
  8
_1-1_
  6
CONTINUOUS
 62
    7
 10
882.79922249694573
 20
1569.5681886415223
 11
882.79922249694573
 21
1579.5682021917983
  0
ARC
  8
_1-1_
  6
CONTINUOUS
 62
    7
 10
454.53010794738998
 20
1472.4906656272624
 40
1.0000000051204763
 50
180
 51
270
  0
ARC
  8
_1-1_
  6
CONTINUOUS
 62
    7
 10
572.53012786040426
 20
1472.4906656272624
 40
1.0000000051204763
 50
270
 51
0
  0
ARC
  8
_1-1_
  6
CONTINUOUS
 62
    7
 10
572.53012786040426
 20
1484.4906468925328
 40
1.0000000051204763
 50
0
 51
90
  0
ARC
  8
_1-1_
  6
CONTINUOUS
 62
    7
 10
454.53010794738998
 20
1484.4906468925328
 40
1.0000000051204763
 50
90
 51
180
  0
ARC
  8
_1-1_
  6
CONTINUOUS
 62
    7
 10
480.41018011026864
 20
1135.5934794068796
 40
2.0000000102409525
 50
180
 51
270
  0
ARC
  8
_1-1_
  6
CONTINUOUS
 62
    7
 10
546.41016455690828
 20
1135.5934794068796
 40
2.0000000102409525
 50
270
 51
0
  0
ARC
  8
_1-1_
  6
CONTINUOUS
 62
    7
 10
455.00000412399697
 20
664.21066888050677
 40
1.0000000051204763
 50
180
 51
270
  0
ARC
  8
_1-1_
  6
CONTINUOUS
 62
    7
 10
572.99998029318544
 20
664.21066888050677
 40
1.0000000051204763
 50
270
 51
0
  0
ARC
  8
_1-1_
  6
CONTINUOUS
 62
    7
 10
572.99998029318544
 20
782.21064504969536
 40
1.0000000051204763
 50
0
 51
90
  0
ARC
  8
_1-1_
  6
CONTINUOUS
 62
    7
 10
455.00000412399697
 20
782.21064504969536
 40
1.0000000051204763
 50
90
 51
180
  0
ARC
  8
_1-1_
  6
CONTINUOUS
 62
    7
 10
514.23933655138637
 20
718.24352367504218
 40
35.000000948151104
 50
278.47860717773437
 51
353.33795166015625
  0
ARC
  8
_1-1_
  6
CONTINUOUS
 62
    7
 10
514.10136852485323
 20
718.24522968424787
 40
35.013635351851178
 50
188.73495483398437
 51
261.52137756347656
  0
ARC
  8
_1-1_
  6
CONTINUOUS
 62
    7
 10
481.22687733771716
 20
756.61429534087301
 40
2.0000000102409525
 50
90
 51
179.99998474121097
  0
ARC
  8
_1-1_
  6
CONTINUOUS
 62
    7
 10
547.22690552818267
 20
756.61429534087301
 40
2.0000000102409525
 50
0
 51
90
  0
LINE
  8
_1-1_
  6
CONTINUOUS
 62
    7
 10
538.3986086274665
 20
715.40083115625566
 11
538.3986086274665
 21
715.40083115625566
  0
LINE
  8
_1-1_
  6
CONTINUOUS
 62
    7
 10
538.3986086274665
 20
715.40083115625566
 11
538.03399468750865
 21
715.74798860471174
  0
LINE
  8
_1-1_
  6
CONTINUOUS
 62
    7
 10
538.03399468750865
 20
715.74798860471174
 11
536.95123147769709
 21
716.08459784976662
  0
LINE
  8
_1-1_
  6
CONTINUOUS
 62
    7
 10
536.95123147769709
 20
716.08459784976662
 11
535.18321821025745
 21
716.4004311898417
  0
LINE
  8
_1-1_
  6
CONTINUOUS
 62
    7
 10
535.18321821025745
 20
716.4004311898417
 11
532.78367507366283
 21
716.68589218871841
  0
LINE
  8
_1-1_
  6
CONTINUOUS
 62
    7
 10
532.78367507366283
 20
716.68589218871841
 11
529.82551097189139
 21
716.93230725839601
  0
LINE
  8
_1-1_
  6
CONTINUOUS
 62
    7
 10
529.82551097189139
 20
716.93230725839601
 11
526.39860822427215
 21
717.13218920167435
  0
LINE
  8
_1-1_
  6
CONTINUOUS
 62
    7
 10
526.39860822427215
 20
717.13218920167435
 11
522.60709153669507
 21
717.27946470685208
  0
LINE
  8
_1-1_
  6
CONTINUOUS
 62
    7
 10
522.60709153669507
 20
717.27946470685208
 11
518.56616422511206
 21
717.36965888222937
  0
LINE
  8
_1-1_
  6
CONTINUOUS
 62
    7
 10
518.56616422511206
 20
717.36965888222937
 11
514.3986078210778
 21
717.40003122342785
  0
LINE
  8
_1-1_
  6
CONTINUOUS
 62
    7
 10
514.3986078210778
 20
717.40003122342785
 11
510.23105141704355
 21
717.36965888222937
  0
LINE
  8
_1-1_
  6
CONTINUOUS
 62
    7
 10
510.23105141704355
 20
717.36965888222937
 11
506.1901241054606
 21
717.27946470685208
  0
LINE
  8
_1-1_
  6
CONTINUOUS
 62
    7
 10
506.1901241054606
 20
717.27946470685208
 11
502.39860741788345
 21
717.13218920167435
  0
LINE
  8
_1-1_
  6
CONTINUOUS
 62
    7
 10
502.39860741788345
 20
717.13218920167435
 11
498.97170467026422
 21
716.93230725839601
  0
LINE
  8
_1-1_
  6
CONTINUOUS
 62
    7
 10
498.97170467026422
 20
716.93230725839601
 11
496.01354056849277
 21
716.68589218871841
  0
LINE
  8
_1-1_
  6
CONTINUOUS
 62
    7
 10
496.01354056849277
 20
716.68589218871841
 11
493.61399743189816
 21
716.4004311898417
  0
LINE
  8
_1-1_
  6
CONTINUOUS
 62
    7
 10
493.61399743189816
 20
716.4004311898417
 11
491.84598416445851
 21
716.08459784976662
  0
LINE
  8
_1-1_
  6
CONTINUOUS
 62
    7
 10
491.84598416445851
 20
716.08459784976662
 11
490.76322095464695
 21
715.74798860471174
  0
LINE
  8
_1-1_
  6
CONTINUOUS
 62
    7
 10
490.76322095464695
 20
715.74798860471174
 11
490.39860701468911
 21
715.40083115625566
  0
LINE
  8
_1-1_
  6
CONTINUOUS
 62
    7
 10
490.39860701468911
 20
715.40083115625566
 11
490.76322095464695
 21
715.05367370779959
  0
LINE
  8
_1-1_
  6
CONTINUOUS
 62
    7
 10
490.76322095464695
 20
715.05367370779959
 11
491.84598416445846
 21
714.7170644627447
  0
LINE
  8
_1-1_
  6
CONTINUOUS
 62
    7
 10
491.84598416445846
 20
714.7170644627447
 11
493.61399743189816
 21
714.40123112266963
  0
LINE
  8
_1-1_
  6
CONTINUOUS
 62
    7
 10
493.61399743189816
 20
714.40123112266963
 11
496.01354056849272
 21
714.11577012379291
  0
LINE
  8
_1-1_
  6
CONTINUOUS
 62
    7
 10
496.01354056849272
 20
714.11577012379291
 11
498.97170467026416
 21
713.86935505411532
  0
LINE
  8
_1-1_
  6
CONTINUOUS
 62
    7
 10
498.97170467026416
 20
713.86935505411532
 11
502.3986074178834
 21
713.66947311083698
  0
LINE
  8
_1-1_
  6
CONTINUOUS
 62
    7
 10
502.3986074178834
 20
713.66947311083698
 11
506.19012410546054
 21
713.52219760565924
  0
LINE
  8
_1-1_
  6
CONTINUOUS
 62
    7
 10
506.19012410546054
 20
713.52219760565924
 11
510.23105141704349
 21
713.43200343028195
  0
LINE
  8
_1-1_
  6
CONTINUOUS
 62
    7
 10
510.23105141704349
 20
713.43200343028195
 11
514.39860782107769
 21
713.40163108908348
  0
LINE
  8
_1-1_
  6
CONTINUOUS
 62
    7
 10
514.39860782107769
 20
713.40163108908348
 11
518.56616422511195
 21
713.43200343028195
  0
LINE
  8
_1-1_
  6
CONTINUOUS
 62
    7
 10
518.56616422511195
 20
713.43200343028195
 11
522.60709153669495
 21
713.52219760565924
  0
LINE
  8
_1-1_
  6
CONTINUOUS
 62
    7
 10
522.60709153669495
 20
713.52219760565924
 11
526.39860822427204
 21
713.66947311083698
  0
LINE
  8
_1-1_
  6
CONTINUOUS
 62
    7
 10
526.39860822427204
 20
713.66947311083698
 11
529.82551097189139
 21
713.86935505411532
  0
LINE
  8
_1-1_
  6
CONTINUOUS
 62
    7
 10
529.82551097189139
 20
713.86935505411532
 11
532.78367507366283
 21
714.11577012379291
  0
LINE
  8
_1-1_
  6
CONTINUOUS
 62
    7
 10
532.78367507366283
 20
714.11577012379291
 11
535.18321821025734
 21
714.40123112266951
  0
LINE
  8
_1-1_
  6
CONTINUOUS
 62
    7
 10
535.18321821025734
 20
714.40123112266951
 11
536.95123147769709
 21
714.7170644627447
  0
LINE
  8
_1-1_
  6
CONTINUOUS
 62
    7
 10
536.95123147769709
 20
714.7170644627447
 11
538.03399468750865
 21
715.05367370779959
  0
LINE
  8
_1-1_
  6
CONTINUOUS
 62
    7
 10
538.03399468750865
 20
715.05367370779959
 11
538.3986086274665
 21
715.40083115625566
  0
LINE
  8
_1-1_
  6
CONTINUOUS
 62
    7
 10
538.3986086274665
 20
715.40083115625566
 11
538.3986086274665
 21
715.40083115625566
  0
LINE
  8
_1-1_
  6
CONTINUOUS
 62
    7
 10
532.49261390748632
 20
715.00599938469963
 11
532.49261390748632
 21
715.00599938469963
  0
LINE
  8
_1-1_
  6
CONTINUOUS
 62
    7
 10
532.49261390748632
 20
715.00599938469963
 11
532.21915345251784
 21
715.17947392001759
  0
LINE
  8
_1-1_
  6
CONTINUOUS
 62
    7
 10
532.21915345251784
 20
715.17947392001759
 11
531.4070810451592
 21
715.34767751936215
  0
LINE
  8
_1-1_
  6
CONTINUOUS
 62
    7
 10
531.4070810451592
 20
715.34767751936215
 11
530.08107109457944
 21
715.50549940148255
  0
LINE
  8
_1-1_
  6
CONTINUOUS
 62
    7
 10
530.08107109457944
 20
715.50549940148255
 11
528.28141374213351
 21
715.64814422835229
  0
LINE
  8
_1-1_
  6
CONTINUOUS
 62
    7
 10
528.28141374213351
 20
715.64814422835229
 11
526.06279066580498
 21
715.77127780908847
  0
LINE
  8
_1-1_
  6
CONTINUOUS
 62
    7
 10
526.06279066580498
 20
715.77127780908847
 11
523.49261360509047
 21
715.87115879214923
  0
LINE
  8
_1-1_
  6
CONTINUOUS
 62
    7
 10
523.49261360509047
 20
715.87115879214923
 11
520.64897608940771
 21
715.94475234440642
  0
LINE
  8
_1-1_
  6
CONTINUOUS
 62
    7
 10
520.64897608940771
 20
715.94475234440642
 11
517.61828060572043
 21
715.98982236301481
  0
LINE
  8
_1-1_
  6
CONTINUOUS
 62
    7
 10
517.61828060572043
 20
715.98982236301481
 11
514.49261330269474
 21
716.00499941826558
  0
LINE
  8
_1-1_
  6
CONTINUOUS
 62
    7
 10
514.49261330269474
 20
716.00499941826558
 11
511.36694599966904
 21
715.98982236301481
  0
LINE
  8
_1-1_
  6
CONTINUOUS
 62
    7
 10
511.36694599966904
 20
715.98982236301481
 11
508.33625051598182
 21
715.94475234440642
  0
LINE
  8
_1-1_
  6
CONTINUOUS
 62
    7
 10
508.33625051598182
 20
715.94475234440642
 11
505.492613000299
 21
715.87115879214923
  0
LINE
  8
_1-1_
  6
CONTINUOUS
 62
    7
 10
505.492613000299
 20
715.87115879214923
 11
502.92243593958455
 21
715.77127780908847
  0
LINE
  8
_1-1_
  6
CONTINUOUS
 62
    7
 10
502.92243593958455
 20
715.77127780908847
 11
500.70381286325596
 21
715.64814422835229
  0
LINE
  8
_1-1_
  6
CONTINUOUS
 62
    7
 10
500.70381286325596
 20
715.64814422835229
 11
498.90415551081003
 21
715.50549940148255
  0
LINE
  8
_1-1_
  6
CONTINUOUS
 62
    7
 10
498.90415551081003
 20
715.50549940148255
 11
497.57814556023027
 21
715.34767751936215
  0
LINE
  8
_1-1_
  6
CONTINUOUS
 62
    7
 10
497.57814556023027
 20
715.34767751936215
 11
496.76607315287163
 21
715.17947392001759
  0
LINE
  8
_1-1_
  6
CONTINUOUS
 62
    7
 10
496.76607315287163
 20
715.17947392001759
 11
496.49261269790321
 21
715.00599938469963
  0
LINE
  8
_1-1_
  6
CONTINUOUS
 62
    7
 10
496.49261269790321
 20
715.00599938469963
 11
496.76607315287163
 21
714.83252484938168
  0
LINE
  8
_1-1_
  6
CONTINUOUS
 62
    7
 10
496.76607315287163
 20
714.83252484938168
 11
497.57814556023021
 21
714.66432125003712
  0
LINE
  8
_1-1_
  6
CONTINUOUS
 62
    7
 10
497.57814556023021
 20
714.66432125003712
 11
498.90415551080997
 21
714.50649936791672
  0
LINE
  8
_1-1_
  6
CONTINUOUS
 62
    7
 10
498.90415551080997
 20
714.50649936791672
 11
500.70381286325591
 21
714.36385454104698
  0
LINE
  8
_1-1_
  6
CONTINUOUS
 62
    7
 10
500.70381286325591
 20
714.36385454104698
 11
502.92243593958449
 21
714.2407209603108
  0
LINE
  8
_1-1_
  6
CONTINUOUS
 62
    7
 10
502.92243593958449
 20
714.2407209603108
 11
505.49261300029895
 21
714.14083997725004
  0
LINE
  8
_1-1_
  6
CONTINUOUS
 62
    7
 10
505.49261300029895
 20
714.14083997725004
 11
508.33625051598176
 21
714.06724642499285
  0
LINE
  8
_1-1_
  6
CONTINUOUS
 62
    7
 10
508.33625051598176
 20
714.06724642499285
 11
511.36694599966899
 21
714.02217640638446
  0
LINE
  8
_1-1_
  6
CONTINUOUS
 62
    7
 10
511.36694599966899
 20
714.02217640638446
 11
514.49261330269474
 21
714.00699935113369
  0
LINE
  8
_1-1_
  6
CONTINUOUS
 62
    7
 10
514.49261330269474
 20
714.00699935113369
 11
517.61828060572043
 21
714.02217640638446
  0
LINE
  8
_1-1_
  6
CONTINUOUS
 62
    7
 10
517.61828060572043
 20
714.02217640638446
 11
520.6489760894076
 21
714.06724642499285
  0
LINE
  8
_1-1_
  6
CONTINUOUS
 62
    7
 10
520.6489760894076
 20
714.06724642499285
 11
523.49261360509047
 21
714.14083997725004
  0
LINE
  8
_1-1_
  6
CONTINUOUS
 62
    7
 10
523.49261360509047
 20
714.14083997725004
 11
526.06279066580487
 21
714.2407209603108
  0
LINE
  8
_1-1_
  6
CONTINUOUS
 62
    7
 10
526.06279066580487
 20
714.2407209603108
 11
528.28141374213351
 21
714.36385454104698
  0
LINE
  8
_1-1_
  6
CONTINUOUS
 62
    7
 10
528.28141374213351
 20
714.36385454104698
 11
530.08107109457944
 21
714.50649936791672
  0
LINE
  8
_1-1_
  6
CONTINUOUS
 62
    7
 10
530.08107109457944
 20
714.50649936791672
 11
531.4070810451592
 21
714.66432125003712
  0
LINE
  8
_1-1_
  6
CONTINUOUS
 62
    7
 10
531.4070810451592
 20
714.66432125003712
 11
532.21915345251784
 21
714.83252484938168
  0
LINE
  8
_1-1_
  6
CONTINUOUS
 62
    7
 10
532.21915345251784
 20
714.83252484938168
 11
532.49261390748632
 21
715.00599938469963
  0
LINE
  8
_1-1_
  6
CONTINUOUS
 62
    7
 10
532.49261390748632
 20
715.00599938469963
 11
532.49261390748632
 21
715.00599938469963
  0
LINE
  8
_1-1_
  6
CONTINUOUS
 62
    7
 10
531.49550073855619
 20
714.73246924205171
 11
531.49550073855619
 21
714.73246924205171
  0
LINE
  8
_1-1_
  6
CONTINUOUS
 62
    7
 10
531.49550073855619
 20
714.73246924205171
 11
531.23723253454727
 21
714.83638031366638
  0
LINE
  8
_1-1_
  6
CONTINUOUS
 62
    7
 10
531.23723253454727
 20
714.83638031366638
 11
530.47027527120952
 21
714.93713409995155
  0
LINE
  8
_1-1_
  6
CONTINUOUS
 62
    7
 10
530.47027527120952
 20
714.93713409995155
 11
529.2179325568901
 21
715.03166924809489
  0
LINE
  8
_1-1_
  6
CONTINUOUS
 62
    7
 10
529.2179325568901
 20
715.03166924809489
 11
527.51825619124793
 21
715.11711335545704
  0
LINE
  8
_1-1_
  6
CONTINUOUS
 62
    7
 10
527.51825619124793
 20
715.11711335545704
 11
525.42288998057506
 21
715.19087024607268
  0
LINE
  8
_1-1_
  6
CONTINUOUS
 62
    7
 10
525.42288998057506
 20
715.19087024607268
 11
522.99550056687633
 21
715.25069885414337
  0
LINE
  8
_1-1_
  6
CONTINUOUS
 62
    7
 10
522.99550056687633
 20
715.25069885414337
 11
520.3098429491688
 21
715.29478131768735
  0
LINE
  8
_1-1_
  6
CONTINUOUS
 62
    7
 10
520.3098429491688
 20
715.29478131768735
 11
517.44751947515817
 21
715.32177821335688
  0
LINE
  8
_1-1_
  6
CONTINUOUS
 62
    7
 10
517.44751947515817
 20
715.32177821335688
 11
514.49550039519659
 21
715.33086925413795
  0
LINE
  8
_1-1_
  6
CONTINUOUS
 62
    7
 10
514.49550039519659
 20
715.33086925413795
 11
511.543481315235
 21
715.32177821335688
  0
LINE
  8
_1-1_
  6
CONTINUOUS
 62
    7
 10
511.543481315235
 20
715.32177821335688
 11
508.68115784122432
 21
715.29478131768735
  0
LINE
  8
_1-1_
  6
CONTINUOUS
 62
    7
 10
508.68115784122432
 20
715.29478131768735
 11
505.99550022351679
 21
715.25069885414337
  0
LINE
  8
_1-1_
  6
CONTINUOUS
 62
    7
 10
505.99550022351679
 20
715.25069885414337
 11
503.56811080981817
 21
715.19087024607268
  0
LINE
  8
_1-1_
  6
CONTINUOUS
 62
    7
 10
503.56811080981817
 20
715.19087024607268
 11
501.47274459914524
 21
715.11711335545704
  0
LINE
  8
_1-1_
  6
CONTINUOUS
 62
    7
 10
501.47274459914524
 20
715.11711335545704
 11
499.77306823350301
 21
715.03166924809489
  0
LINE
  8
_1-1_
  6
CONTINUOUS
 62
    7
 10
499.77306823350301
 20
715.03166924809489
 11
498.52072551918371
 21
714.93713409995155
  0
LINE
  8
_1-1_
  6
CONTINUOUS
 62
    7
 10
498.52072551918371
 20
714.93713409995155
 11
497.7537682558459
 21
714.83638031366638
  0
LINE
  8
_1-1_
  6
CONTINUOUS
 62
    7
 10
497.7537682558459
 20
714.83638031366638
 11
497.49550005183698
 21
714.73246924205171
  0
LINE
  8
_1-1_
  6
CONTINUOUS
 62
    7
 10
497.49550005183698
 20
714.73246924205171
 11
497.7537682558459
 21
714.62855817043703
  0
LINE
  8
_1-1_
  6
CONTINUOUS
 62
    7
 10
497.7537682558459
 20
714.62855817043703
 11
498.52072551918366
 21
714.52780438415186
  0
LINE
  8
_1-1_
  6
CONTINUOUS
 62
    7
 10
498.52072551918366
 20
714.52780438415186
 11
499.77306823350301
 21
714.43326923600853
  0
LINE
  8
_1-1_
  6
CONTINUOUS
 62
    7
 10
499.77306823350301
 20
714.43326923600853
 11
501.47274459914524
 21
714.34782512864638
  0
LINE
  8
_1-1_
  6
CONTINUOUS
 62
    7
 10
501.47274459914524
 20
714.34782512864638
 11
503.56811080981811
 21
714.27406823803074
  0
LINE
  8
_1-1_
  6
CONTINUOUS
 62
    7
 10
503.56811080981811
 20
714.27406823803074
 11
505.99550022351679
 21
714.21423962996005
  0
LINE
  8
_1-1_
  6
CONTINUOUS
 62
    7
 10
505.99550022351679
 20
714.21423962996005
 11
508.68115784122426
 21
714.17015716641606
  0
LINE
  8
_1-1_
  6
CONTINUOUS
 62
    7
 10
508.68115784122426
 20
714.17015716641606
 11
511.54348131523494
 21
714.14316027074653
  0
LINE
  8
_1-1_
  6
CONTINUOUS
 62
    7
 10
511.54348131523494
 20
714.14316027074653
 11
514.49550039519659
 21
714.13406922996546
  0
LINE
  8
_1-1_
  6
CONTINUOUS
 62
    7
 10
514.49550039519659
 20
714.13406922996546
 11
517.44751947515806
 21
714.14316027074653
  0
LINE
  8
_1-1_
  6
CONTINUOUS
 62
    7
 10
517.44751947515806
 20
714.14316027074653
 11
520.3098429491688
 21
714.17015716641606
  0
LINE
  8
_1-1_
  6
CONTINUOUS
 62
    7
 10
520.3098429491688
 20
714.17015716641606
 11
522.99550056687633
 21
714.21423962996005
  0
LINE
  8
_1-1_
  6
CONTINUOUS
 62
    7
 10
522.99550056687633
 20
714.21423962996005
 11
525.42288998057495
 21
714.27406823803074
  0
LINE
  8
_1-1_
  6
CONTINUOUS
 62
    7
 10
525.42288998057495
 20
714.27406823803074
 11
527.51825619124781
 21
714.34782512864638
  0
LINE
  8
_1-1_
  6
CONTINUOUS
 62
    7
 10
527.51825619124781
 20
714.34782512864638
 11
529.2179325568901
 21
714.43326923600853
  0
LINE
  8
_1-1_
  6
CONTINUOUS
 62
    7
 10
529.2179325568901
 20
714.43326923600853
 11
530.47027527120952
 21
714.52780438415186
  0
LINE
  8
_1-1_
  6
CONTINUOUS
 62
    7
 10
530.47027527120952
 20
714.52780438415186
 11
531.23723253454727
 21
714.62855817043703
  0
LINE
  8
_1-1_
  6
CONTINUOUS
 62
    7
 10
531.23723253454727
 20
714.62855817043703
 11
531.49550073855619
 21
714.73246924205171
  0
LINE
  8
_1-1_
  6
CONTINUOUS
 62
    7
 10
531.49550073855619
 20
714.73246924205171
 11
531.49550073855619
 21
714.73246924205171
  0
ARC
  8
_1-1_
  6
CONTINUOUS
 62
    7
 10
1237.8603324742851
 20
750.71062861262135
 40
2.0000000102409525
 50
90
 51
180
  0
CIRCLE
  8
_1-1_
  6
CONTINUOUS
 62
    7
 10
1262.8602788623234
 20
722.21065123569088
 40
26.999998856695463
  0
CIRCLE
  8
_1-1_
  6
CONTINUOUS
 62
    7
 10
1262.8602788623234
 20
722.21065123569088
 40
25.000001067820662
  0
CIRCLE
  8
_1-1_
  6
CONTINUOUS
 62
    7
 10
1262.8602788623234
 20
722.21065123569088
 40
21.000000022092841
  0
ARC
  8
_1-1_
  6
CONTINUOUS
 62
    7
 10
874.38326036607896
 20
743.66139857465225
 40
4.9999999401652211
 50
265.60369873046875
 51
94.396286010742159
  0
ARC
  8
_1-1_
  6
CONTINUOUS
 62
    7
 10
751.40571800438124
 20
766.51553533252138
 40
4.9999999401652211
 50
58.744003295898438
 51
301.2559814453125
  0
ARC
  8
_1-1_
  6
CONTINUOUS
 62
    7
 10
737.02029843127866
 20
695.16441242114911
 40
4.9943132428128747
 50
0
 51
76.634872436523438
  0
ARC
  8
_1-1_
  6
CONTINUOUS
 62
    7
 10
1350.8575460073109
 20
663.21064127918373
 40
1.0000000051204763
 50
270
 51
0
  0
ARC
  8
_1-1_
  6
CONTINUOUS
 62
    7
 10
1350.8575460073109
 20
781.21066119219802
 40
1.0000000051204763
 50
0
 51
90
  0
ARC
  8
_1-1_
  6
CONTINUOUS
 62
    7
 10
1411.972219990027
 20
692.31432719580448
 40
9.9996923065553762
 50
285.96434020996094
 51
312.53663635253906
  0
ARC
  8
_1-1_
  6
CONTINUOUS
 62
    7
 10
769.99999351943313
 20
1556.5682235187544
 40
27.999999118127413
 50
235.22804260253906
 51
290.02803039550781
  0
ARC
  8
_1-1_
  6
CONTINUOUS
 62
    7
 10
769.99999351943313
 20
1556.5682235187544
 40
27.999999118127413
 50
235.22804260253906
 51
290.02803039550781
  0
ARC
  8
_1-1_
  6
CONTINUOUS
 62
    7
 10
857.99997278161936
 20
1556.5682235187544
 40
27.999999118127413
 50
251.36003112792969
 51
27.664001464843743
  0
ARC
  8
_1-1_
  6
CONTINUOUS
 62
    7
 10
843.50003187260563
 20
1556.5682235187544
 40
27.105686673786646
 50
270
 51
25.622558593750014
  0
TEXT
  8
_0-0_
 62
    6
 10
2352.9998938365334
 20
1792.9806801343054
 40
100
 41
1
 50
0
  1
BX-5808
  0
ENDSEC
  0
EOF
