  0
SECTION
  2
HEADER
  9
$ACADVER
  1
AC1009
  9
$INSBASE
 10
0
 20
0
 30
0
  9
$EXTMIN
 10
0
 20
0
  9
$EXTMAX
 10
2970
 20
2100
  9
$LIMMIN
 10
0
 20
0
  9
$LIMMAX
 10
2970
 20
2100
  9
$LTSCALE
 40
10
  0
ENDSEC
  0
SECTION
  2
TABLES
  0
TABLE
  2
LTYPE
 70
     9
  0
LTYPE
  2
CONTINUOUS
 70
    64
  3
実線
 72
    65
 73
     0
 40
0.0
  0
LTYPE
  2
DASHED1
 70
    64
  3
--  --  --  --  --  --  --  --  
 72
    65
 73
     2
 40
2.5
 49
1.25
 49
-1.25
  0
LTYPE
  2
DASHED2
 70
    64
  3
----    ----    ----    ----    
 72
    65
 73
     2
 40
5.0
 49
2.5
 49
-2.5
  0
LTYPE
  2
DASHED3
 70
    64
  3
------  ------  ------  ------  
 72
    65
 73
     2
 40
5.0
 49
3.75
 49
-1.25
  0
LTYPE
  2
CENTER1
 70
    64
  3
----- - ----- - ----- - ----- - 
 72
    65
 73
     4
 40
10.0
 49
6.25
 49
-1.25
 49
1.25
 49
-1.25
  0
LTYPE
  2
CENTER2
 70
    64
  3
----------  --  ----------  --  
 72
    65
 73
     4
 40
20.0
 49
12.5
 49
-2.5
 49
2.5
 49
-2.5
  0
LTYPE
  2
PHANTOM1
 70
    64
  3
--- - - --- - - --- - - --- - - 
 72
    65
 73
     6
 40
10.0
 49
3.25
 49
-1.25
 49
1.25
 49
-1.25
 49
1.25
 49
-1.25
  0
LTYPE
  2
PHANTOM2
 70
    64
  3
--------  -  -  --------  -  -  
 72
    65
 73
     6
 40
20.0
 49
10.0
 49
-2.5
 49
1.25
 49
-2.5
 49
1.25
 49
-2.5
  0
LTYPE
  2
DOT
 70
    64
  3
-   -   -   -   -   -   -   -   
 72
    65
 73
     2
 40
2.5
 49
0.625
 49
-1.875
  0
LTYPE
  2
DUMMY
 70
    64
  3
ダミー
 72
    65
 73
     0
 40
0.0
  0
LTYPE
  2
RAND1
 70
    64
  3
ランダム線1
 72
    65
 73
     4
 40
10.0
 49
1.0
 49
-2.0
 49
3.0
 49
-4.0
  0
LTYPE
  2
RAND2
 70
    64
  3
ランダム線2
 72
    65
 73
     4
 40
14.0
 49
2.0
 49
-3.0
 49
4.0
 49
-5.0
  0
LTYPE
  2
RAND3
 70
    64
  3
ランダム線3
 72
    65
 73
     4
 40
18.0
 49
3.0
 49
-4.0
 49
5.0
 49
-6.0
  0
LTYPE
  2
RAND4
 70
    64
  3
ランダム線4
 72
    65
 73
     4
 40
22.0
 49
4.0
 49
-5.0
 49
6.0
 49
-7.0
  0
LTYPE
  2
RAND5
 70
    64
  3
ランダム線5
 72
    65
 73
     4
 40
26.0
 49
5.0
 49
-6.0
 49
7.0
 49
-8.0
  0
LTYPE
  2
LONG1
 70
    64
  3
----------  --  ----------  --  
 72
    65
 73
     4
 40
40.0
 49
32.5
 49
-2.5
 49
2.5
 49
-2.5
  0
LTYPE
  2
LONG2
 70
    64
  3
--------  -  -  --------  -  -  
 72
    65
 73
     6
 40
40.0
 49
30.0
 49
-2.5
 49
1.25
 49
-2.5
 49
1.25
 49
-2.5
  0
LTYPE
  2
LONG3
 70
    64
  3
+++++++++++++++..+++++++++++++++
 72
    65
 73
     2
 40
40.0
 49
37.5
 49
-2.5
  0
LTYPE
  2
LONG4
 70
    64
  3
+++++++++++++++..+++++++++++++++
 72
    65
 73
     2
 40
80.0
 49
75.0
 49
-5.0
  0
LTYPE
  2
LONG5
 70
    64
  3
----------  --  ----------  --  
 72
    65
 73
     4
 40
60.0
 49
37.5
 49
-7.5
 49
7.5
 49
-7.5
  0
LTYPE
  2
dashed
 70
   64
  3
-------   -------------   ------
 72
   65
 73
    2
 40
7.5
 49
6
 49
-1.5
  0
LTYPE
  2
dashed_spaced
 70
   64
  3
----        --------        ----
 72
   65
 73
    2
 40
12
 49
6
 49
-6
  0
LTYPE
  2
long_dashed_dotted
 70
   64
  3
------------- --- --------------
 72
   65
 73
    4
 40
15.25
 49
12
 49
-1.5
 49
0.25
 49
-1.5
  0
LTYPE
  2
long_dashed_double-dotted
 70
   64
  3
----------- --- --- ------------
 72
   65
 73
    6
 40
17
 49
12
 49
-1.5
 49
0.25
 49
-1.5
 49
0.25
 49
-1.5
  0
LTYPE
  2
long_dashed_triplicate-dotted
 70
   64
  3
--------- --- --- --- ----------
 72
   65
 73
    8
 40
18.75
 49
12
 49
-1.5
 49
0.25
 49
-1.5
 49
0.25
 49
-1.5
 49
0.25
 49
-1.5
  0
LTYPE
  2
dotted
 70
   64
  3
   -       -       -       -    
 72
   65
 73
    2
 40
1.75
 49
0.25
 49
-1.5
  0
LTYPE
  2
chain
 70
   64
  3
-------------- -- --------------
 72
   65
 73
    4
 40
18.5
 49
12
 49
-1.5
 49
3.5
 49
-1.5
  0
LTYPE
  2
chain_double_dash
 70
   64
  3
------------ -- -- -------------
 72
   65
 73
    6
 40
23.5
 49
12
 49
-1.5
 49
3.5
 49
-1.5
 49
3.5
 49
-1.5
  0
LTYPE
  2
dashed_dotted
 70
   64
  3
-----------     -     ----------
 72
   65
 73
    4
 40
9.25
 49
6
 49
-1.5
 49
0.25
 49
-1.5
  0
LTYPE
  2
double-dashed_dotted
 70
   64
  3
------   -----------   -   -----
 72
   65
 73
    6
 40
16.75
 49
6
 49
-1.5
 49
6
 49
-1.5
 49
0.25
 49
-1.5
  0
LTYPE
  2
dashed_double-dotted
 70
   64
  3
---------    -    -    ---------
 72
   65
 73
    6
 40
11
 49
6
 49
-1.5
 49
0.25
 49
-1.5
 49
0.25
 49
-1.5
  0
LTYPE
  2
double-dashed_double-dotted
 70
   64
  3
-----   ---------   -   -   ----
 72
   65
 73
    8
 40
18.5
 49
6
 49
-1.5
 49
6
 49
-1.5
 49
0.25
 49
-1.5
 49
0.25
 49
-1.5
  0
LTYPE
  2
dashed_triplicate-dotted
 70
   64
  3
-------    -    -    -    ------
 72
   65
 73
    8
 40
12.75
 49
6
 49
-1.5
 49
0.25
 49
-1.5
 49
0.25
 49
-1.5
 49
0.25
 49
-1.5
  0
LTYPE
  2
double-dashed_triplicate-dotted
 70
   64
  3
-----  ---------  -  -  -  -----
 72
   65
 73
   10
 40
20.25
 49
6
 49
-1.5
 49
6
 49
-1.5
 49
0.25
 49
-1.5
 49
0.25
 49
-1.5
 49
0.25
 49
-1.5
  0
LTYPE
  2
undefined
 70
   64
  3
--------------------------------
 72
   65
 73
    0
 40
0
  0
LTYPE
  2
_
 70
   64
  3
                                
 72
   65
 73
    0
 40
0
  0
LTYPE
  2
__18
 70
   64
  3
                                
 72
   65
 73
    0
 40
0
  0
LTYPE
  2
__19
 70
   64
  3
                                
 72
   65
 73
    0
 40
0
  0
LTYPE
  2
__20
 70
   64
  3
                                
 72
   65
 73
    0
 40
0
  0
LTYPE
  2
__21
 70
   64
  3
                                
 72
   65
 73
    0
 40
0
  0
LTYPE
  2
__22
 70
   64
  3
                                
 72
   65
 73
    0
 40
0
  0
LTYPE
  2
__23
 70
   64
  3
                                
 72
   65
 73
    0
 40
0
  0
LTYPE
  2
__24
 70
   64
  3
                                
 72
   65
 73
    0
 40
0
  0
LTYPE
  2
__25
 70
   64
  3
                                
 72
   65
 73
    0
 40
0
  0
LTYPE
  2
__26
 70
   64
  3
                                
 72
   65
 73
    0
 40
0
  0
LTYPE
  2
__27
 70
   64
  3
                                
 72
   65
 73
    0
 40
0
  0
LTYPE
  2
__28
 70
   64
  3
                                
 72
   65
 73
    0
 40
0
  0
LTYPE
  2
__29
 70
   64
  3
                                
 72
   65
 73
    0
 40
0
  0
LTYPE
  2
__30
 70
   64
  3
                                
 72
   65
 73
    0
 40
0
  0
LTYPE
  2
__31
 70
   64
  3
                                
 72
   65
 73
    0
 40
0
  0
LTYPE
  2
__32
 70
   64
  3
                                
 72
   65
 73
    0
 40
0
  0
ENDTAB
  0
TABLE
  2
STYLE
  5
3
100
AcDbSymbolTable
 70
     1
  0
STYLE
  5
10
100
AcDbSymbolTableRecord
100
AcDbTextStyleTableRecord
  2
STANDARD
 70
     0
 40
0.0
 41
1.0
 50
0.0
 71
     0
 42
0.2
  3
txt
  4
bigfont.shx
  0
STYLE
  5
26
100
AcDbSymbolTableRecord
100
AcDbTextStyleTableRecord
  2
TATEGAKI
 70
    68
 40
0.0
 41
1.0
 50
0.0
 71
     0
 42
1.0
  3
txt
  4
bigfont.shx
  0
ENDTAB
  0
TABLE
  2
LAYER
 70
    5
  0
LAYER
  2
_0-0_
 70
   64
 62
    7
  6
CONTINUOUS
  0
LAYER
  2
_1-0_
 70
   64
 62
    7
  6
CONTINUOUS
  0
LAYER
  2
_1-1_
 70
   64
 62
    7
  6
CONTINUOUS
  0
LAYER
  2
_1-2_
 70
   64
 62
    7
  6
CONTINUOUS
  0
LAYER
  2
ADD_LINE
 70
   64
 62
    7
  6
CONTINUOUS
  0
ENDTAB
  0
ENDSEC
  0
SECTION
  2
BLOCKS
  0
ENDSEC
  0
SECTION
  2
ENTITIES
  0
LINE
  8
_1-0_
  6
CONTINUOUS
 62
    7
 10
620.25897243308282
 20
1433.432066044752
 11
658.25897143154066
 21
1433.432066044752
  0
LINE
  8
_1-0_
  6
CONTINUOUS
 62
    7
 10
658.25897143154066
 20
1433.432066044752
 11
658.25897143154066
 21
1393.4320118436481
  0
LINE
  8
_1-0_
  6
CONTINUOUS
 62
    7
 10
658.25897143154066
 20
1393.4320118436481
 11
620.25897243308282
 21
1393.4320118436481
  0
LINE
  8
_1-0_
  6
CONTINUOUS
 62
    7
 10
620.25897243308282
 20
1393.4320118436481
 11
620.25897243308282
 21
1433.432066044752
  0
LINE
  8
_1-0_
  6
CONTINUOUS
 62
    7
 10
618.28061416802711
 20
1428.6468414542296
 11
620.2628656335778
 21
1429.6816453970537
  0
LINE
  8
_1-0_
  6
CONTINUOUS
 62
    7
 10
620.2628656335778
 20
1429.6816453970537
 11
658.25709044703171
 21
1430.3448017959888
  0
LINE
  8
_1-0_
  6
CONTINUOUS
 62
    7
 10
658.25709044703171
 20
1430.3448017959888
 11
660.27424948556074
 21
1429.3799004867731
  0
LINE
  8
_1-0_
  6
CONTINUOUS
 62
    7
 10
660.27424948556074
 20
1429.3799004867731
 11
658.29199802000994
 21
1428.345096543949
  0
LINE
  8
_1-0_
  6
CONTINUOUS
 62
    7
 10
658.29199802000994
 20
1428.345096543949
 11
620.29777320655614
 21
1427.6819401450139
  0
LINE
  8
_1-0_
  6
CONTINUOUS
 62
    7
 10
620.29777320655614
 20
1427.6819401450139
 11
618.28061416802711
 21
1428.6468414542296
  0
LINE
  8
_1-0_
  6
CONTINUOUS
 62
    7
 10
618.28061416802711
 20
1425.6328918574859
 11
620.2628656335778
 21
1426.6676958003097
  0
LINE
  8
_1-0_
  6
CONTINUOUS
 62
    7
 10
620.2628656335778
 20
1426.6676958003097
 11
658.25709044703171
 21
1427.3308521992451
  0
LINE
  8
_1-0_
  6
CONTINUOUS
 62
    7
 10
658.25709044703171
 20
1427.3308521992451
 11
660.27424948556074
 21
1426.3659508900291
  0
LINE
  8
_1-0_
  6
CONTINUOUS
 62
    7
 10
660.27424948556074
 20
1426.3659508900291
 11
658.29199802000994
 21
1425.3311469472053
  0
LINE
  8
_1-0_
  6
CONTINUOUS
 62
    7
 10
658.29199802000994
 20
1425.3311469472053
 11
620.29777320655614
 21
1424.6679905482699
  0
LINE
  8
_1-0_
  6
CONTINUOUS
 62
    7
 10
620.29777320655614
 20
1424.6679905482699
 11
618.28061416802711
 21
1425.6328918574859
  0
LINE
  8
_1-0_
  6
CONTINUOUS
 62
    7
 10
618.28061416802711
 20
1422.6189422607422
 11
620.2628656335778
 21
1423.6536587159144
  0
LINE
  8
_1-0_
  6
CONTINUOUS
 62
    7
 10
620.2628656335778
 20
1423.6536587159144
 11
658.25709044703171
 21
1424.3169026025012
  0
LINE
  8
_1-0_
  6
CONTINUOUS
 62
    7
 10
658.25709044703171
 20
1424.3169026025012
 11
660.27424948556074
 21
1423.3519138056338
  0
LINE
  8
_1-0_
  6
CONTINUOUS
 62
    7
 10
660.27424948556074
 20
1423.3519138056338
 11
658.29199802000994
 21
1422.3171973504614
  0
LINE
  8
_1-0_
  6
CONTINUOUS
 62
    7
 10
658.29199802000994
 20
1422.3171973504614
 11
620.29777320655614
 21
1421.654040951526
  0
LINE
  8
_1-0_
  6
CONTINUOUS
 62
    7
 10
620.29777320655614
 20
1421.654040951526
 11
618.28061416802711
 21
1422.6189422607422
  0
LINE
  8
_1-0_
  6
CONTINUOUS
 62
    7
 10
618.28061416802711
 20
1419.4954581242268
 11
620.2628656335778
 21
1420.5301745793995
  0
LINE
  8
_1-0_
  6
CONTINUOUS
 62
    7
 10
620.2628656335778
 20
1420.5301745793995
 11
658.25709044703171
 21
1421.1933309783344
  0
LINE
  8
_1-0_
  6
CONTINUOUS
 62
    7
 10
658.25709044703171
 20
1421.1933309783344
 11
660.27424948556074
 21
1420.2284296691187
  0
LINE
  8
_1-0_
  6
CONTINUOUS
 62
    7
 10
660.27424948556074
 20
1420.2284296691187
 11
658.29199802000994
 21
1419.1936257262946
  0
LINE
  8
_1-0_
  6
CONTINUOUS
 62
    7
 10
658.29199802000994
 20
1419.1936257262946
 11
620.29777320655614
 21
1418.5304693273597
  0
LINE
  8
_1-0_
  6
CONTINUOUS
 62
    7
 10
620.29777320655614
 20
1418.5304693273597
 11
618.28061416802711
 21
1419.4954581242268
  0
LINE
  8
_1-0_
  6
CONTINUOUS
 62
    7
 10
618.28061416802711
 20
1416.3718865000601
 11
620.2628656335778
 21
1417.4066029552328
  0
LINE
  8
_1-0_
  6
CONTINUOUS
 62
    7
 10
620.2628656335778
 20
1417.4066029552328
 11
658.25709044703171
 21
1418.0698468418195
  0
LINE
  8
_1-0_
  6
CONTINUOUS
 62
    7
 10
658.25709044703171
 20
1418.0698468418195
 11
660.27424948556074
 21
1417.1048580449519
  0
LINE
  8
_1-0_
  6
CONTINUOUS
 62
    7
 10
660.27424948556074
 20
1417.1048580449519
 11
658.29199802000994
 21
1416.0701415897797
  0
LINE
  8
_1-0_
  6
CONTINUOUS
 62
    7
 10
658.29199802000994
 20
1416.0701415897797
 11
620.29777320655614
 21
1415.4069851908444
  0
LINE
  8
_1-0_
  6
CONTINUOUS
 62
    7
 10
620.29777320655614
 20
1415.4069851908444
 11
618.28061416802711
 21
1416.3718865000601
  0
LINE
  8
_1-0_
  6
CONTINUOUS
 62
    7
 10
618.28061416802711
 20
1413.2483148758936
 11
620.2628656335778
 21
1414.2831188187174
  0
LINE
  8
_1-0_
  6
CONTINUOUS
 62
    7
 10
620.2628656335778
 20
1414.2831188187174
 11
658.25709044703171
 21
1414.9462752176528
  0
LINE
  8
_1-0_
  6
CONTINUOUS
 62
    7
 10
658.25709044703171
 20
1414.9462752176528
 11
660.27424948556074
 21
1413.9813739084368
  0
LINE
  8
_1-0_
  6
CONTINUOUS
 62
    7
 10
660.27424948556074
 20
1413.9813739084368
 11
658.29199802000994
 21
1412.946569965613
  0
LINE
  8
_1-0_
  6
CONTINUOUS
 62
    7
 10
658.29199802000994
 20
1412.946569965613
 11
620.29777320655614
 21
1412.2834135666776
  0
LINE
  8
_1-0_
  6
CONTINUOUS
 62
    7
 10
620.29777320655614
 20
1412.2834135666776
 11
618.28061416802711
 21
1413.2483148758936
  0
LINE
  8
_1-0_
  6
CONTINUOUS
 62
    7
 10
618.28061416802711
 20
1410.1248307393782
 11
620.2628656335778
 21
1411.1595471945509
  0
LINE
  8
_1-0_
  6
CONTINUOUS
 62
    7
 10
620.2628656335778
 20
1411.1595471945509
 11
658.25709044703171
 21
1411.8227910811377
  0
LINE
  8
_1-0_
  6
CONTINUOUS
 62
    7
 10
658.25709044703171
 20
1411.8227910811377
 11
660.27424948556074
 21
1410.8578022842701
  0
LINE
  8
_1-0_
  6
CONTINUOUS
 62
    7
 10
660.27424948556074
 20
1410.8578022842701
 11
658.29199802000994
 21
1409.8230858290979
  0
LINE
  8
_1-0_
  6
CONTINUOUS
 62
    7
 10
658.29199802000994
 20
1409.8230858290979
 11
620.29777320655614
 21
1409.1599294301625
  0
LINE
  8
_1-0_
  6
CONTINUOUS
 62
    7
 10
620.29777320655614
 20
1409.1599294301625
 11
618.28061416802711
 21
1410.1248307393782
  0
LINE
  8
_1-0_
  6
CONTINUOUS
 62
    7
 10
618.28061416802711
 20
1407.0012591152115
 11
620.2628656335778
 21
1408.0360630580356
  0
LINE
  8
_1-0_
  6
CONTINUOUS
 62
    7
 10
620.2628656335778
 20
1408.0360630580356
 11
658.25709044703171
 21
1408.6992194569709
  0
LINE
  8
_1-0_
  6
CONTINUOUS
 62
    7
 10
658.25709044703171
 20
1408.6992194569709
 11
660.27424948556074
 21
1407.7343181477549
  0
LINE
  8
_1-0_
  6
CONTINUOUS
 62
    7
 10
660.27424948556074
 20
1407.7343181477549
 11
658.29199802000994
 21
1406.6995142049311
  0
LINE
  8
_1-0_
  6
CONTINUOUS
 62
    7
 10
658.29199802000994
 20
1406.6995142049311
 11
620.29777320655614
 21
1406.0363578059957
  0
LINE
  8
_1-0_
  6
CONTINUOUS
 62
    7
 10
620.29777320655614
 20
1406.0363578059957
 11
618.28061416802711
 21
1407.0012591152115
  0
LINE
  8
_1-0_
  6
CONTINUOUS
 62
    7
 10
618.28061416802711
 20
1403.7682404389252
 11
620.2628656335778
 21
1404.8029568940976
  0
LINE
  8
_1-0_
  6
CONTINUOUS
 62
    7
 10
620.2628656335778
 20
1404.8029568940976
 11
658.25709044703171
 21
1405.4662007806842
  0
LINE
  8
_1-0_
  6
CONTINUOUS
 62
    7
 10
658.25709044703171
 20
1405.4662007806842
 11
660.27424948556074
 21
1404.5012119838168
  0
LINE
  8
_1-0_
  6
CONTINUOUS
 62
    7
 10
660.27424948556074
 20
1404.5012119838168
 11
658.29199802000994
 21
1403.4664955286444
  0
LINE
  8
_1-0_
  6
CONTINUOUS
 62
    7
 10
658.29199802000994
 20
1403.4664955286444
 11
620.29777320655614
 21
1402.8032516420578
  0
LINE
  8
_1-0_
  6
CONTINUOUS
 62
    7
 10
620.29777320655614
 20
1402.8032516420578
 11
618.28061416802711
 21
1403.7682404389252
  0
LINE
  8
_1-0_
  6
CONTINUOUS
 62
    7
 10
618.28061416802711
 20
1400.4255997352157
 11
620.2628656335778
 21
1401.4603161903881
  0
LINE
  8
_1-0_
  6
CONTINUOUS
 62
    7
 10
620.2628656335778
 20
1401.4603161903881
 11
658.25709044703171
 21
1402.1234725893235
  0
LINE
  8
_1-0_
  6
CONTINUOUS
 62
    7
 10
658.25709044703171
 20
1402.1234725893235
 11
660.27424948556074
 21
1401.1585712801073
  0
LINE
  8
_1-0_
  6
CONTINUOUS
 62
    7
 10
660.27424948556074
 20
1401.1585712801073
 11
658.29199802000994
 21
1400.1238548249351
  0
LINE
  8
_1-0_
  6
CONTINUOUS
 62
    7
 10
658.29199802000994
 20
1400.1238548249351
 11
620.29777320655614
 21
1399.4606109383483
  0
LINE
  8
_1-0_
  6
CONTINUOUS
 62
    7
 10
620.29777320655614
 20
1399.4606109383483
 11
618.28061416802711
 21
1400.4255997352157
  0
LINE
  8
_1-0_
  6
CONTINUOUS
 62
    7
 10
618.29544332496903
 20
1431.6701522296919
 11
620.27765104669402
 21
1432.7048686848643
  0
LINE
  8
_1-0_
  6
CONTINUOUS
 62
    7
 10
620.27765104669402
 20
1432.7048686848643
 11
658.27187586014793
 21
1433.3680250837995
  0
LINE
  8
_1-0_
  6
CONTINUOUS
 62
    7
 10
658.27187586014793
 20
1433.3680250837995
 11
660.28903489867685
 21
1432.4031237745837
  0
LINE
  8
_1-0_
  6
CONTINUOUS
 62
    7
 10
660.28903489867685
 20
1432.4031237745837
 11
658.30678343312616
 21
1431.3684073194113
  0
LINE
  8
_1-0_
  6
CONTINUOUS
 62
    7
 10
658.30678343312616
 20
1431.3684073194113
 11
620.31255861967225
 21
1430.7051634328243
  0
LINE
  8
_1-0_
  6
CONTINUOUS
 62
    7
 10
620.31255861967225
 20
1430.7051634328243
 11
618.29544332496903
 21
1431.6701522296919
  0
LINE
  8
_1-0_
  6
CONTINUOUS
 62
    7
 10
609.44646106263372
 20
1380.5113980208582
 11
609.44646106263372
 21
1380.4085125426068
  0
LINE
  8
_1-0_
  6
CONTINUOUS
 62
    7
 10
669.4464548766382
 20
1380.5113980208582
 11
669.4464548766382
 21
1380.4085125426068
  0
LINE
  8
_1-0_
  6
CONTINUOUS
 62
    7
 10
578.86182792398461
 20
1387.4084870327395
 11
578.86182792398461
 21
1393.4084776653744
  0
LINE
  8
_1-0_
  6
CONTINUOUS
 62
    7
 10
578.86182792398461
 20
1393.4084776653744
 11
578.88103146350522
 21
1393.603575128386
  0
LINE
  8
_1-0_
  6
CONTINUOUS
 62
    7
 10
578.88103146350522
 20
1393.603575128386
 11
578.93794218085441
 21
1393.7911486533617
  0
LINE
  8
_1-0_
  6
CONTINUOUS
 62
    7
 10
578.93794218085441
 20
1393.7911486533617
 11
579.03032914091705
 21
1393.9641117405247
  0
LINE
  8
_1-0_
  6
CONTINUOUS
 62
    7
 10
579.03032914091705
 20
1393.9641117405247
 11
579.15469283763048
 21
1394.115640353052
  0
LINE
  8
_1-0_
  6
CONTINUOUS
 62
    7
 10
579.15469283763048
 20
1394.115640353052
 11
579.30622145015741
 21
1394.2399603059391
  0
LINE
  8
_1-0_
  6
CONTINUOUS
 62
    7
 10
579.30622145015741
 20
1394.2399603059391
 11
579.47914079349471
 21
1394.332347266002
  0
LINE
  8
_1-0_
  6
CONTINUOUS
 62
    7
 10
579.47914079349471
 20
1394.332347266002
 11
579.66671431847067
 21
1394.3893017271771
  0
LINE
  8
_1-0_
  6
CONTINUOUS
 62
    7
 10
579.66671431847067
 20
1394.3893017271771
 11
579.86181178148183
 21
1394.4084615228717
  0
LINE
  8
_1-0_
  6
CONTINUOUS
 62
    7
 10
579.86181178148183
 20
1394.4084615228717
 11
638.86182173798898
 21
1394.4084615228717
  0
LINE
  8
_1-0_
  6
CONTINUOUS
 62
    7
 10
638.86182173798898
 20
1394.4084615228717
 11
697.86183169449612
 21
1394.4084615228717
  0
LINE
  8
_1-0_
  6
CONTINUOUS
 62
    7
 10
697.86183169449612
 20
1394.4084615228717
 11
698.0568854136817
 21
1394.3893017271771
  0
LINE
  8
_1-0_
  6
CONTINUOUS
 62
    7
 10
698.0568854136817
 20
1394.3893017271771
 11
698.24450268248324
 21
1394.332347266002
  0
LINE
  8
_1-0_
  6
CONTINUOUS
 62
    7
 10
698.24450268248324
 20
1394.332347266002
 11
698.41737828199473
 21
1394.2399603059391
  0
LINE
  8
_1-0_
  6
CONTINUOUS
 62
    7
 10
698.41737828199473
 20
1394.2399603059391
 11
698.56890689452166
 21
1394.115640353052
  0
LINE
  8
_1-0_
  6
CONTINUOUS
 62
    7
 10
698.56890689452166
 20
1394.115640353052
 11
698.69327059123509
 21
1393.9641117405247
  0
LINE
  8
_1-0_
  6
CONTINUOUS
 62
    7
 10
698.69327059123509
 20
1393.9641117405247
 11
698.78570129512354
 21
1393.7911486533617
  0
LINE
  8
_1-0_
  6
CONTINUOUS
 62
    7
 10
698.78570129512354
 20
1393.7911486533617
 11
698.84261201247284
 21
1393.603575128386
  0
LINE
  8
_1-0_
  6
CONTINUOUS
 62
    7
 10
698.84261201247284
 20
1393.603575128386
 11
698.86181555199346
 21
1393.4084776653744
  0
LINE
  8
_1-0_
  6
CONTINUOUS
 62
    7
 10
698.86181555199346
 20
1393.4084776653744
 11
698.86181555199346
 21
1387.4084870327395
  0
LINE
  8
_1-0_
  6
CONTINUOUS
 62
    7
 10
698.86181555199346
 20
1387.4084870327395
 11
698.86181555199346
 21
1381.408496400104
  0
LINE
  8
_1-0_
  6
CONTINUOUS
 62
    7
 10
698.86181555199346
 20
1381.408496400104
 11
698.84261201247284
 21
1381.2133989370927
  0
LINE
  8
_1-0_
  6
CONTINUOUS
 62
    7
 10
698.84261201247284
 20
1381.2133989370927
 11
698.78570129512354
 21
1381.0258254121168
  0
LINE
  8
_1-0_
  6
CONTINUOUS
 62
    7
 10
698.78570129512354
 20
1381.0258254121168
 11
698.69327059123509
 21
1380.8529498126054
  0
LINE
  8
_1-0_
  6
CONTINUOUS
 62
    7
 10
698.69327059123509
 20
1380.8529498126054
 11
698.56890689452166
 21
1380.7014212000784
  0
LINE
  8
_1-0_
  6
CONTINUOUS
 62
    7
 10
698.56890689452166
 20
1380.7014212000784
 11
698.41737828199473
 21
1380.5770137595393
  0
LINE
  8
_1-0_
  6
CONTINUOUS
 62
    7
 10
698.41737828199473
 20
1380.5770137595393
 11
698.24450268248324
 21
1380.4846267994765
  0
LINE
  8
_1-0_
  6
CONTINUOUS
 62
    7
 10
698.24450268248324
 20
1380.4846267994765
 11
698.0568854136817
 21
1380.4277598259532
  0
LINE
  8
_1-0_
  6
CONTINUOUS
 62
    7
 10
698.0568854136817
 20
1380.4277598259532
 11
697.86183169449612
 21
1380.4085125426068
  0
LINE
  8
_1-0_
  6
CONTINUOUS
 62
    7
 10
697.86183169449612
 20
1380.4085125426068
 11
638.86182173798898
 21
1380.4085125426068
  0
LINE
  8
_1-0_
  6
CONTINUOUS
 62
    7
 10
638.86182173798898
 20
1380.4085125426068
 11
579.86181178148183
 21
1380.4085125426068
  0
LINE
  8
_1-0_
  6
CONTINUOUS
 62
    7
 10
579.86181178148183
 20
1380.4085125426068
 11
579.66671431847067
 21
1380.4277598259532
  0
LINE
  8
_1-0_
  6
CONTINUOUS
 62
    7
 10
579.66671431847067
 20
1380.4277598259532
 11
579.47914079349471
 21
1380.4846267994765
  0
LINE
  8
_1-0_
  6
CONTINUOUS
 62
    7
 10
579.47914079349471
 20
1380.4846267994765
 11
579.30622145015741
 21
1380.5770137595393
  0
LINE
  8
_1-0_
  6
CONTINUOUS
 62
    7
 10
579.30622145015741
 20
1380.5770137595393
 11
579.15469283763048
 21
1380.7014212000784
  0
LINE
  8
_1-0_
  6
CONTINUOUS
 62
    7
 10
579.15469283763048
 20
1380.7014212000784
 11
579.03032914091705
 21
1380.8529498126054
  0
LINE
  8
_1-0_
  6
CONTINUOUS
 62
    7
 10
579.03032914091705
 20
1380.8529498126054
 11
578.93794218085441
 21
1381.0258254121168
  0
LINE
  8
_1-0_
  6
CONTINUOUS
 62
    7
 10
578.93794218085441
 20
1381.0258254121168
 11
578.88103146350522
 21
1381.2133989370927
  0
LINE
  8
_1-0_
  6
CONTINUOUS
 62
    7
 10
578.88103146350522
 20
1381.2133989370927
 11
578.86182792398461
 21
1381.408496400104
  0
LINE
  8
_1-0_
  6
CONTINUOUS
 62
    7
 10
578.86182792398461
 20
1381.408496400104
 11
578.86182792398461
 21
1387.4084870327395
  0
LINE
  8
_1-0_
  6
CONTINUOUS
 62
    7
 10
603.74187248554006
 20
1380.5113980208582
 11
673.74187984982041
 21
1380.5113980208582
  0
LINE
  8
_1-0_
  6
CONTINUOUS
 62
    7
 10
673.74187984982041
 20
1380.5113980208582
 11
673.74187984982041
 21
1044.5113976673729
  0
LINE
  8
_1-0_
  6
CONTINUOUS
 62
    7
 10
673.74187984982041
 20
1044.5113976673729
 11
673.70342902695347
 21
1044.1212027413503
  0
LINE
  8
_1-0_
  6
CONTINUOUS
 62
    7
 10
673.70342902695347
 20
1044.1212027413503
 11
673.58960759225499
 21
1043.7460556913986
  0
LINE
  8
_1-0_
  6
CONTINUOUS
 62
    7
 10
673.58960759225499
 20
1043.7460556913986
 11
673.40478992830367
 21
1043.4002170047243
  0
LINE
  8
_1-0_
  6
CONTINUOUS
 62
    7
 10
673.40478992830367
 20
1043.4002170047243
 11
673.15606253487715
 21
1043.0971597796699
  0
LINE
  8
_1-0_
  6
CONTINUOUS
 62
    7
 10
673.15606253487715
 20
1043.0971597796699
 11
672.85300530982283
 21
1042.8484323862435
  0
LINE
  8
_1-0_
  6
CONTINUOUS
 62
    7
 10
672.85300530982283
 20
1042.8484323862435
 11
672.50721036697439
 21
1042.663658466118
  0
LINE
  8
_1-0_
  6
CONTINUOUS
 62
    7
 10
672.50721036697439
 20
1042.663658466118
 11
672.132019573197
 21
1042.5498370314197
  0
LINE
  8
_1-0_
  6
CONTINUOUS
 62
    7
 10
672.132019573197
 20
1042.5498370314197
 11
671.74186839100014
 21
1042.5114299523784
  0
LINE
  8
_1-0_
  6
CONTINUOUS
 62
    7
 10
671.74186839100014
 20
1042.5114299523784
 11
638.74187616768029
 21
1042.5114299523784
  0
LINE
  8
_1-0_
  6
CONTINUOUS
 62
    7
 10
638.74187616768029
 20
1042.5114299523784
 11
605.74184020053463
 21
1042.5114299523784
  0
LINE
  8
_1-0_
  6
CONTINUOUS
 62
    7
 10
605.74184020053463
 20
1042.5114299523784
 11
605.35168901833788
 21
1042.5498370314197
  0
LINE
  8
_1-0_
  6
CONTINUOUS
 62
    7
 10
605.35168901833788
 20
1042.5498370314197
 11
604.97649822456026
 21
1042.663658466118
  0
LINE
  8
_1-0_
  6
CONTINUOUS
 62
    7
 10
604.97649822456026
 20
1042.663658466118
 11
604.63070328171182
 21
1042.8484323862435
  0
LINE
  8
_1-0_
  6
CONTINUOUS
 62
    7
 10
604.63070328171182
 20
1042.8484323862435
 11
604.3276460566575
 21
1043.0971597796699
  0
LINE
  8
_1-0_
  6
CONTINUOUS
 62
    7
 10
604.3276460566575
 20
1043.0971597796699
 11
604.07891866323098
 21
1043.4002170047243
  0
LINE
  8
_1-0_
  6
CONTINUOUS
 62
    7
 10
604.07891866323098
 20
1043.4002170047243
 11
603.89410099927977
 21
1043.7460556913986
  0
LINE
  8
_1-0_
  6
CONTINUOUS
 62
    7
 10
603.89410099927977
 20
1043.7460556913986
 11
603.78027956458129
 21
1044.1212027413503
  0
LINE
  8
_1-0_
  6
CONTINUOUS
 62
    7
 10
603.78027956458129
 20
1044.1212027413503
 11
603.74187248554006
 21
1044.5113976673729
  0
LINE
  8
_1-0_
  6
CONTINUOUS
 62
    7
 10
603.74187248554006
 20
1044.5113976673729
 11
603.74187248554006
 21
1380.5113980208582
  0
LINE
  8
_1-0_
  6
CONTINUOUS
 62
    7
 10
1428.9082545571343
 20
542.98069235901107
 11
1428.9082545571343
 21
662.98067998701993
  0
LINE
  8
_1-0_
  6
CONTINUOUS
 62
    7
 10
1442.9082035373997
 20
542.98069235901107
 11
1428.9082545571343
 21
542.98069235901107
  0
LINE
  8
_1-0_
  6
CONTINUOUS
 62
    7
 10
1442.9082035373997
 20
662.98067998701993
 11
1442.9082035373997
 21
542.98069235901107
  0
LINE
  8
_1-0_
  6
CONTINUOUS
 62
    7
 10
1428.9082545571343
 20
662.98067998701993
 11
1442.9082035373997
 21
662.98067998701993
  0
LINE
  8
_1-0_
  6
CONTINUOUS
 62
    7
 10
1385.9082487835385
 20
575.96375572175123
 11
1393.9082071311686
 21
575.96375572175123
  0
LINE
  8
_1-0_
  6
CONTINUOUS
 62
    7
 10
1385.9082487835385
 20
629.96375890312049
 11
1385.9082487835385
 21
634.96376567825837
  0
LINE
  8
_1-0_
  6
CONTINUOUS
 62
    7
 10
1331.9082456021695
 20
634.96376567825837
 11
1331.9082456021695
 21
570.96374894661335
  0
LINE
  8
_1-0_
  6
CONTINUOUS
 62
    7
 10
1385.9082487835385
 20
570.36375863211492
 11
1385.9082487835385
 21
575.96375572175123
  0
LINE
  8
_1-0_
  6
CONTINUOUS
 62
    7
 10
1343.9082268674401
 20
646.96374694352903
 11
1343.9082268674401
 21
636.96373339325294
  0
LINE
  8
_1-0_
  6
CONTINUOUS
 62
    7
 10
1343.9082268674401
 20
646.96374694352903
 11
1335.9081810321586
 21
654.96374903498463
  0
LINE
  8
_1-0_
  6
CONTINUOUS
 62
    7
 10
1373.9081800306164
 20
646.96374694352903
 11
1373.9081800306164
 21
636.96373339325294
  0
LINE
  8
_1-0_
  6
CONTINUOUS
 62
    7
 10
1373.9081800306164
 20
646.96374694352903
 11
1381.908225865898
 21
654.96374903498463
  0
LINE
  8
_1-0_
  6
CONTINUOUS
 62
    7
 10
1328.9082065420259
 20
636.96373339325294
 11
1328.9082065420259
 21
650.96376986116968
  0
LINE
  8
_1-0_
  6
CONTINUOUS
 62
    7
 10
1332.9082294596669
 20
654.96374903498463
 11
1384.9081774383899
 21
654.96374903498463
  0
LINE
  8
_1-0_
  6
CONTINUOUS
 62
    7
 10
1384.9081774383899
 20
654.96374903498463
 11
1388.9082003560304
 21
650.96376986116968
  0
LINE
  8
_1-0_
  6
CONTINUOUS
 62
    7
 10
1332.9082294596669
 20
654.96374903498463
 11
1328.9082065420259
 21
650.96376986116968
  0
LINE
  8
_1-0_
  6
CONTINUOUS
 62
    7
 10
1365.9082216829868
 20
654.96374903498463
 11
1373.9081800306164
 21
646.96374694352903
  0
LINE
  8
_1-0_
  6
CONTINUOUS
 62
    7
 10
1351.90818521507
 20
654.96374903498463
 11
1343.9082268674401
 21
646.96374694352903
  0
LINE
  8
_1-0_
  6
CONTINUOUS
 62
    7
 10
1388.9082003560304
 20
650.96376986116968
 11
1388.9082003560304
 21
636.96373339325294
  0
LINE
  8
_1-0_
  6
CONTINUOUS
 62
    7
 10
1328.9082065420259
 20
636.96373339325294
 11
1329.9081903995234
 21
636.96373339325294
  0
LINE
  8
_1-0_
  6
CONTINUOUS
 62
    7
 10
1335.3622580863334
 20
636.96373339325294
 11
1353.5623142433903
 21
636.96373339325294
  0
LINE
  8
_1-0_
  6
CONTINUOUS
 62
    7
 10
1387.9082164985332
 20
636.96373339325294
 11
1388.9082003560304
 21
636.96373339325294
  0
LINE
  8
_1-0_
  6
CONTINUOUS
 62
    7
 10
1366.7622761376574
 20
636.96373339325294
 11
1384.3622544925645
 21
636.96373339325294
  0
LINE
  8
_1-0_
  6
CONTINUOUS
 62
    7
 10
1343.9082268674401
 20
558.96376768134269
 11
1343.9082268674401
 21
568.96373748779297
  0
LINE
  8
_1-0_
  6
CONTINUOUS
 62
    7
 10
1343.9082268674401
 20
558.96376768134269
 11
1335.9081810321586
 21
550.96376558988709
  0
LINE
  8
_1-0_
  6
CONTINUOUS
 62
    7
 10
1373.9081800306164
 20
558.96376768134269
 11
1373.9081800306164
 21
568.96373748779297
  0
LINE
  8
_1-0_
  6
CONTINUOUS
 62
    7
 10
1373.9081800306164
 20
558.96376768134269
 11
1381.908225865898
 21
550.96376558988709
  0
LINE
  8
_1-0_
  6
CONTINUOUS
 62
    7
 10
1328.9082065420259
 20
568.96373748779297
 11
1328.9082065420259
 21
554.96374476370204
  0
LINE
  8
_1-0_
  6
CONTINUOUS
 62
    7
 10
1384.9081774383899
 20
550.96376558988709
 11
1388.9082003560304
 21
554.96374476370204
  0
LINE
  8
_1-0_
  6
CONTINUOUS
 62
    7
 10
1332.9082294596669
 20
550.96376558988709
 11
1328.9082065420259
 21
554.96374476370204
  0
LINE
  8
_1-0_
  6
CONTINUOUS
 62
    7
 10
1365.9082216829868
 20
550.96376558988709
 11
1373.9081800306164
 21
558.96376768134269
  0
LINE
  8
_1-0_
  6
CONTINUOUS
 62
    7
 10
1351.90818521507
 20
550.96376558988709
 11
1343.9082268674401
 21
558.96376768134269
  0
LINE
  8
_1-0_
  6
CONTINUOUS
 62
    7
 10
1388.9082003560304
 20
554.96374476370204
 11
1388.9082003560304
 21
568.96373748779297
  0
LINE
  8
_1-0_
  6
CONTINUOUS
 62
    7
 10
1328.9082065420259
 20
568.96373748779297
 11
1329.9081903995234
 21
568.96373748779297
  0
LINE
  8
_1-0_
  6
CONTINUOUS
 62
    7
 10
1335.3622580863334
 20
568.96373748779297
 11
1353.5623142433903
 21
568.96373748779297
  0
LINE
  8
_1-0_
  6
CONTINUOUS
 62
    7
 10
1387.9082164985332
 20
568.96373748779297
 11
1388.9082003560304
 21
568.96373748779297
  0
LINE
  8
_1-0_
  6
CONTINUOUS
 62
    7
 10
1366.7622761376574
 20
568.96373748779297
 11
1384.3622544925645
 21
568.96373748779297
  0
LINE
  8
_1-0_
  6
CONTINUOUS
 62
    7
 10
1385.9082487835385
 20
629.96375890312049
 11
1393.9082071311686
 21
629.96375890312049
  0
LINE
  8
_1-0_
  6
CONTINUOUS
 62
    7
 10
1332.9082294596669
 20
550.96376558988709
 11
1384.9081774383899
 21
550.96376558988709
  0
LINE
  8
_1-1_
  6
CONTINUOUS
 62
    7
 10
1358.9082471928541
 20
542.96376349843149
 11
1358.9082471928541
 21
649.81072635724274
  0
LINE
  8
_1-1_
  6
CONTINUOUS
 62
    7
 10
1428.9082545571343
 20
542.96376349843149
 11
1428.9082545571343
 21
649.81072635724274
  0
LINE
  8
_1-1_
  6
CONTINUOUS
 62
    7
 10
170.99999549306034
 20
1392.5886308824693
 11
1224.9999976434301
 21
1392.5886308824693
  0
LINE
  8
_1-1_
  6
CONTINUOUS
 62
    7
 10
269.00001017743563
 20
663.35867038564788
 11
1286.999959172429
 21
663.35867038564788
  0
LINE
  8
_1-0_
  6
CONTINUOUS
 62
    7
 10
1420.908208721853
 20
580.98069135746891
 11
1420.908208721853
 21
624.98068098856209
  0
LINE
  8
_1-0_
  6
CONTINUOUS
 62
    7
 10
1426.9081993544885
 20
580.98069135746891
 11
1420.908208721853
 21
580.98069135746891
  0
LINE
  8
_1-0_
  6
CONTINUOUS
 62
    7
 10
1420.908208721853
 20
624.98068098856209
 11
1426.9081993544885
 21
624.98068098856209
  0
LINE
  8
_1-0_
  6
CONTINUOUS
 62
    7
 10
1386.9082326410357
 20
581.98067521496625
 11
1386.9082326410357
 21
623.98069713106474
  0
LINE
  8
_1-0_
  6
CONTINUOUS
 62
    7
 10
1420.908208721853
 20
581.98067521496625
 11
1386.9082326410357
 21
581.98067521496625
  0
LINE
  8
_1-0_
  6
CONTINUOUS
 62
    7
 10
1420.908208721853
 20
623.98069713106474
 11
1420.908208721853
 21
581.98067521496625
  0
LINE
  8
_1-0_
  6
CONTINUOUS
 62
    7
 10
1386.9082326410357
 20
623.98069713106474
 11
1420.908208721853
 21
623.98069713106474
  0
LINE
  8
_1-0_
  6
CONTINUOUS
 62
    7
 10
1419.9082248643558
 20
626.48070051863385
 11
1420.4082167931042
 21
626.98069244738247
  0
LINE
  8
_1-0_
  6
CONTINUOUS
 62
    7
 10
1419.9082248643558
 20
579.48071557122307
 11
1419.9082248643558
 21
626.48070051863385
  0
LINE
  8
_1-0_
  6
CONTINUOUS
 62
    7
 10
1420.4082167931042
 20
578.98067989864865
 11
1419.9082248643558
 21
579.48071557122307
  0
LINE
  8
_1-0_
  6
CONTINUOUS
 62
    7
 10
1420.908208721853
 20
579.48071557122307
 11
1420.4082167931042
 21
578.98067989864865
  0
LINE
  8
_1-0_
  6
CONTINUOUS
 62
    7
 10
1420.908208721853
 20
626.48070051863385
 11
1420.908208721853
 21
579.48071557122307
  0
LINE
  8
_1-0_
  6
CONTINUOUS
 62
    7
 10
1420.4082167931042
 20
626.98069244738247
 11
1420.908208721853
 21
626.48070051863385
  0
LINE
  8
_1-0_
  6
CONTINUOUS
 62
    7
 10
1417.9082571493611
 20
626.48070051863385
 11
1418.4082490781097
 21
626.98069244738247
  0
LINE
  8
_1-0_
  6
CONTINUOUS
 62
    7
 10
1417.9082571493611
 20
579.48071557122307
 11
1417.9082571493611
 21
626.48070051863385
  0
LINE
  8
_1-0_
  6
CONTINUOUS
 62
    7
 10
1418.4082490781097
 20
578.98067989864865
 11
1417.9082571493611
 21
579.48071557122307
  0
LINE
  8
_1-0_
  6
CONTINUOUS
 62
    7
 10
1418.9082410068586
 20
579.48071557122307
 11
1418.4082490781097
 21
578.98067989864865
  0
LINE
  8
_1-0_
  6
CONTINUOUS
 62
    7
 10
1418.9082410068586
 20
626.48070051863385
 11
1418.9082410068586
 21
579.48071557122307
  0
LINE
  8
_1-0_
  6
CONTINUOUS
 62
    7
 10
1418.4082490781097
 20
626.98069244738247
 11
1418.9082410068586
 21
626.48070051863385
  0
LINE
  8
_1-0_
  6
CONTINUOUS
 62
    7
 10
1415.9082019467151
 20
626.48070051863385
 11
1416.4081938754637
 21
626.98069244738247
  0
LINE
  8
_1-0_
  6
CONTINUOUS
 62
    7
 10
1415.9082019467151
 20
579.48071557122307
 11
1415.9082019467151
 21
626.48070051863385
  0
LINE
  8
_1-0_
  6
CONTINUOUS
 62
    7
 10
1416.4081938754637
 20
578.98067989864865
 11
1415.9082019467151
 21
579.48071557122307
  0
LINE
  8
_1-0_
  6
CONTINUOUS
 62
    7
 10
1416.9081858042123
 20
579.48071557122307
 11
1416.4081938754637
 21
578.98067989864865
  0
LINE
  8
_1-0_
  6
CONTINUOUS
 62
    7
 10
1416.9081858042123
 20
626.48070051863385
 11
1416.9081858042123
 21
579.48071557122307
  0
LINE
  8
_1-0_
  6
CONTINUOUS
 62
    7
 10
1416.4081938754637
 20
626.98069244738247
 11
1416.9081858042123
 21
626.48070051863385
  0
LINE
  8
_1-0_
  6
CONTINUOUS
 62
    7
 10
1413.9082342317204
 20
626.48070051863385
 11
1414.4082261604692
 21
626.98069244738247
  0
LINE
  8
_1-0_
  6
CONTINUOUS
 62
    7
 10
1413.9082342317204
 20
579.48071557122307
 11
1413.9082342317204
 21
626.48070051863385
  0
LINE
  8
_1-0_
  6
CONTINUOUS
 62
    7
 10
1414.4082261604692
 20
578.98067989864865
 11
1413.9082342317204
 21
579.48071557122307
  0
LINE
  8
_1-0_
  6
CONTINUOUS
 62
    7
 10
1414.9082180892176
 20
579.48071557122307
 11
1414.4082261604692
 21
578.98067989864865
  0
LINE
  8
_1-0_
  6
CONTINUOUS
 62
    7
 10
1414.9082180892176
 20
626.48070051863385
 11
1414.9082180892176
 21
579.48071557122307
  0
LINE
  8
_1-0_
  6
CONTINUOUS
 62
    7
 10
1414.4082261604692
 20
626.98069244738247
 11
1414.9082180892176
 21
626.48070051863385
  0
LINE
  8
_1-0_
  6
CONTINUOUS
 62
    7
 10
1411.9081790290743
 20
626.48070051863385
 11
1412.4082584454745
 21
626.98069244738247
  0
LINE
  8
_1-0_
  6
CONTINUOUS
 62
    7
 10
1411.9081790290743
 20
579.48071557122307
 11
1411.9081790290743
 21
626.48070051863385
  0
LINE
  8
_1-0_
  6
CONTINUOUS
 62
    7
 10
1412.4082584454745
 20
578.98067989864865
 11
1411.9081790290743
 21
579.48071557122307
  0
LINE
  8
_1-0_
  6
CONTINUOUS
 62
    7
 10
1412.9082503742231
 20
579.48071557122307
 11
1412.4082584454745
 21
578.98067989864865
  0
LINE
  8
_1-0_
  6
CONTINUOUS
 62
    7
 10
1412.9082503742231
 20
626.48070051863385
 11
1412.9082503742231
 21
579.48071557122307
  0
LINE
  8
_1-0_
  6
CONTINUOUS
 62
    7
 10
1412.4082584454745
 20
626.98069244738247
 11
1412.9082503742231
 21
626.48070051863385
  0
LINE
  8
_1-0_
  6
CONTINUOUS
 62
    7
 10
1409.9082113140798
 20
626.48070051863385
 11
1410.4082032428282
 21
626.98069244738247
  0
LINE
  8
_1-0_
  6
CONTINUOUS
 62
    7
 10
1409.9082113140798
 20
579.48071557122307
 11
1409.9082113140798
 21
626.48070051863385
  0
LINE
  8
_1-0_
  6
CONTINUOUS
 62
    7
 10
1410.4082032428282
 20
578.98067989864865
 11
1409.9082113140798
 21
579.48071557122307
  0
LINE
  8
_1-0_
  6
CONTINUOUS
 62
    7
 10
1410.9081951715771
 20
579.48071557122307
 11
1410.4082032428282
 21
578.98067989864865
  0
LINE
  8
_1-0_
  6
CONTINUOUS
 62
    7
 10
1410.9081951715771
 20
626.48070051863385
 11
1410.9081951715771
 21
579.48071557122307
  0
LINE
  8
_1-0_
  6
CONTINUOUS
 62
    7
 10
1410.4082032428282
 20
626.98069244738247
 11
1410.9081951715771
 21
626.48070051863385
  0
LINE
  8
_1-0_
  6
CONTINUOUS
 62
    7
 10
1407.9082435990854
 20
626.48070051863385
 11
1408.4082355278338
 21
626.98069244738247
  0
LINE
  8
_1-0_
  6
CONTINUOUS
 62
    7
 10
1407.9082435990854
 20
579.48071557122307
 11
1407.9082435990854
 21
626.48070051863385
  0
LINE
  8
_1-0_
  6
CONTINUOUS
 62
    7
 10
1408.4082355278338
 20
578.98067989864865
 11
1407.9082435990854
 21
579.48071557122307
  0
LINE
  8
_1-0_
  6
CONTINUOUS
 62
    7
 10
1408.9082274565826
 20
579.48071557122307
 11
1408.4082355278338
 21
578.98067989864865
  0
LINE
  8
_1-0_
  6
CONTINUOUS
 62
    7
 10
1408.9082274565826
 20
626.48070051863385
 11
1408.9082274565826
 21
579.48071557122307
  0
LINE
  8
_1-0_
  6
CONTINUOUS
 62
    7
 10
1408.4082355278338
 20
626.98069244738247
 11
1408.9082274565826
 21
626.48070051863385
  0
LINE
  8
_1-0_
  6
CONTINUOUS
 62
    7
 10
1405.9081883964391
 20
626.48070051863385
 11
1406.4081803251879
 21
626.98069244738247
  0
LINE
  8
_1-0_
  6
CONTINUOUS
 62
    7
 10
1405.9081883964391
 20
579.48071557122307
 11
1405.9081883964391
 21
626.48070051863385
  0
LINE
  8
_1-0_
  6
CONTINUOUS
 62
    7
 10
1406.4081803251879
 20
578.98067989864865
 11
1405.9081883964391
 21
579.48071557122307
  0
LINE
  8
_1-0_
  6
CONTINUOUS
 62
    7
 10
1406.9081722539363
 20
579.48071557122307
 11
1406.4081803251879
 21
578.98067989864865
  0
LINE
  8
_1-0_
  6
CONTINUOUS
 62
    7
 10
1406.9081722539363
 20
626.48070051863385
 11
1406.9081722539363
 21
579.48071557122307
  0
LINE
  8
_1-0_
  6
CONTINUOUS
 62
    7
 10
1406.4081803251879
 20
626.98069244738247
 11
1406.9081722539363
 21
626.48070051863385
  0
LINE
  8
_1-0_
  6
CONTINUOUS
 62
    7
 10
1403.9082206814444
 20
626.48070051863385
 11
1404.4082126101932
 21
626.98069244738247
  0
LINE
  8
_1-0_
  6
CONTINUOUS
 62
    7
 10
1403.9082206814444
 20
579.48071557122307
 11
1403.9082206814444
 21
626.48070051863385
  0
LINE
  8
_1-0_
  6
CONTINUOUS
 62
    7
 10
1404.4082126101932
 20
578.98067989864865
 11
1403.9082206814444
 21
579.48071557122307
  0
LINE
  8
_1-0_
  6
CONTINUOUS
 62
    7
 10
1404.9082045389418
 20
579.48071557122307
 11
1404.4082126101932
 21
578.98067989864865
  0
LINE
  8
_1-0_
  6
CONTINUOUS
 62
    7
 10
1404.9082045389418
 20
626.48070051863385
 11
1404.9082045389418
 21
579.48071557122307
  0
LINE
  8
_1-0_
  6
CONTINUOUS
 62
    7
 10
1404.4082126101932
 20
626.98069244738247
 11
1404.9082045389418
 21
626.48070051863385
  0
LINE
  8
_1-0_
  6
CONTINUOUS
 62
    7
 10
1401.9082529664499
 20
626.48070051863385
 11
1402.4082448951985
 21
626.98069244738247
  0
LINE
  8
_1-0_
  6
CONTINUOUS
 62
    7
 10
1401.9082529664499
 20
579.48071557122307
 11
1401.9082529664499
 21
626.48070051863385
  0
LINE
  8
_1-0_
  6
CONTINUOUS
 62
    7
 10
1402.4082448951985
 20
578.98067989864865
 11
1401.9082529664499
 21
579.48071557122307
  0
LINE
  8
_1-0_
  6
CONTINUOUS
 62
    7
 10
1402.9082368239472
 20
579.48071557122307
 11
1402.4082448951985
 21
578.98067989864865
  0
LINE
  8
_1-0_
  6
CONTINUOUS
 62
    7
 10
1402.9082368239472
 20
626.48070051863385
 11
1402.9082368239472
 21
579.48071557122307
  0
LINE
  8
_1-0_
  6
CONTINUOUS
 62
    7
 10
1402.4082448951985
 20
626.98069244738247
 11
1402.9082368239472
 21
626.48070051863385
  0
LINE
  8
_1-0_
  6
CONTINUOUS
 62
    7
 10
1399.9081977638036
 20
626.48070051863385
 11
1400.4081896925525
 21
626.98069244738247
  0
LINE
  8
_1-0_
  6
CONTINUOUS
 62
    7
 10
1399.9081977638036
 20
579.48071557122307
 11
1399.9081977638036
 21
626.48070051863385
  0
LINE
  8
_1-0_
  6
CONTINUOUS
 62
    7
 10
1400.4081896925525
 20
578.98067989864865
 11
1399.9081977638036
 21
579.48071557122307
  0
LINE
  8
_1-0_
  6
CONTINUOUS
 62
    7
 10
1400.9081816213009
 20
579.48071557122307
 11
1400.4081896925525
 21
578.98067989864865
  0
LINE
  8
_1-0_
  6
CONTINUOUS
 62
    7
 10
1400.9081816213009
 20
626.48070051863385
 11
1400.9081816213009
 21
579.48071557122307
  0
LINE
  8
_1-0_
  6
CONTINUOUS
 62
    7
 10
1400.4081896925525
 20
626.98069244738247
 11
1400.9081816213009
 21
626.48070051863385
  0
LINE
  8
_1-0_
  6
CONTINUOUS
 62
    7
 10
1397.9082300488089
 20
626.48070051863385
 11
1398.4082219775578
 21
626.98069244738247
  0
LINE
  8
_1-0_
  6
CONTINUOUS
 62
    7
 10
1397.9082300488089
 20
579.48071557122307
 11
1397.9082300488089
 21
626.48070051863385
  0
LINE
  8
_1-0_
  6
CONTINUOUS
 62
    7
 10
1398.4082219775578
 20
578.98067989864865
 11
1397.9082300488089
 21
579.48071557122307
  0
LINE
  8
_1-0_
  6
CONTINUOUS
 62
    7
 10
1398.9082139063064
 20
579.48071557122307
 11
1398.4082219775578
 21
578.98067989864865
  0
LINE
  8
_1-0_
  6
CONTINUOUS
 62
    7
 10
1398.9082139063064
 20
626.48070051863385
 11
1398.9082139063064
 21
579.48071557122307
  0
LINE
  8
_1-0_
  6
CONTINUOUS
 62
    7
 10
1398.4082219775578
 20
626.98069244738247
 11
1398.9082139063064
 21
626.48070051863385
  0
LINE
  8
_1-0_
  6
CONTINUOUS
 62
    7
 10
1395.9081748461631
 20
626.48070051863385
 11
1396.4082542625633
 21
626.98069244738247
  0
LINE
  8
_1-0_
  6
CONTINUOUS
 62
    7
 10
1395.9081748461631
 20
579.48071557122307
 11
1395.9081748461631
 21
626.48070051863385
  0
LINE
  8
_1-0_
  6
CONTINUOUS
 62
    7
 10
1396.4082542625633
 20
578.98067989864865
 11
1395.9081748461631
 21
579.48071557122307
  0
LINE
  8
_1-0_
  6
CONTINUOUS
 62
    7
 10
1396.9082461913117
 20
579.48071557122307
 11
1396.4082542625633
 21
578.98067989864865
  0
LINE
  8
_1-0_
  6
CONTINUOUS
 62
    7
 10
1396.9082461913117
 20
626.48070051863385
 11
1396.9082461913117
 21
579.48071557122307
  0
LINE
  8
_1-0_
  6
CONTINUOUS
 62
    7
 10
1396.4082542625633
 20
626.98069244738247
 11
1396.9082461913117
 21
626.48070051863385
  0
LINE
  8
_1-0_
  6
CONTINUOUS
 62
    7
 10
1393.9082071311686
 20
626.48070051863385
 11
1394.408199059917
 21
626.98069244738247
  0
LINE
  8
_1-0_
  6
CONTINUOUS
 62
    7
 10
1393.9082071311686
 20
579.48071557122307
 11
1393.9082071311686
 21
626.48070051863385
  0
LINE
  8
_1-0_
  6
CONTINUOUS
 62
    7
 10
1394.408199059917
 20
578.98067989864865
 11
1393.9082071311686
 21
579.48071557122307
  0
LINE
  8
_1-0_
  6
CONTINUOUS
 62
    7
 10
1394.9081909886659
 20
579.48071557122307
 11
1394.408199059917
 21
578.98067989864865
  0
LINE
  8
_1-0_
  6
CONTINUOUS
 62
    7
 10
1394.9081909886659
 20
626.48070051863385
 11
1394.9081909886659
 21
579.48071557122307
  0
LINE
  8
_1-0_
  6
CONTINUOUS
 62
    7
 10
1394.408199059917
 20
626.98069244738247
 11
1394.9081909886659
 21
626.48070051863385
  0
LINE
  8
_1-0_
  6
CONTINUOUS
 62
    7
 10
1391.908239416174
 20
626.48070051863385
 11
1392.4082313449226
 21
626.98069244738247
  0
LINE
  8
_1-0_
  6
CONTINUOUS
 62
    7
 10
1391.908239416174
 20
579.48071557122307
 11
1391.908239416174
 21
626.48070051863385
  0
LINE
  8
_1-0_
  6
CONTINUOUS
 62
    7
 10
1392.4082313449226
 20
578.98067989864865
 11
1391.908239416174
 21
579.48071557122307
  0
LINE
  8
_1-0_
  6
CONTINUOUS
 62
    7
 10
1392.9082232736712
 20
579.48071557122307
 11
1392.4082313449226
 21
578.98067989864865
  0
LINE
  8
_1-0_
  6
CONTINUOUS
 62
    7
 10
1392.9082232736712
 20
626.48070051863385
 11
1392.9082232736712
 21
579.48071557122307
  0
LINE
  8
_1-0_
  6
CONTINUOUS
 62
    7
 10
1392.4082313449226
 20
626.98069244738247
 11
1392.9082232736712
 21
626.48070051863385
  0
LINE
  8
_1-0_
  6
CONTINUOUS
 62
    7
 10
1389.9081842135276
 20
626.48070051863385
 11
1390.4081761422765
 21
626.98069244738247
  0
LINE
  8
_1-0_
  6
CONTINUOUS
 62
    7
 10
1389.9081842135276
 20
579.48071557122307
 11
1389.9081842135276
 21
626.48070051863385
  0
LINE
  8
_1-0_
  6
CONTINUOUS
 62
    7
 10
1390.4081761422765
 20
578.98067989864865
 11
1389.9081842135276
 21
579.48071557122307
  0
LINE
  8
_1-0_
  6
CONTINUOUS
 62
    7
 10
1390.9082555586767
 20
579.48071557122307
 11
1390.4081761422765
 21
578.98067989864865
  0
LINE
  8
_1-0_
  6
CONTINUOUS
 62
    7
 10
1390.9082555586767
 20
626.48070051863385
 11
1390.9082555586767
 21
579.48071557122307
  0
LINE
  8
_1-0_
  6
CONTINUOUS
 62
    7
 10
1390.4081761422765
 20
626.98069244738247
 11
1390.9082555586767
 21
626.48070051863385
  0
LINE
  8
_1-0_
  6
CONTINUOUS
 62
    7
 10
1387.9082164985332
 20
626.48070051863385
 11
1388.4082084272818
 21
626.98069244738247
  0
LINE
  8
_1-0_
  6
CONTINUOUS
 62
    7
 10
1387.9082164985332
 20
579.48071557122307
 11
1387.9082164985332
 21
626.48070051863385
  0
LINE
  8
_1-0_
  6
CONTINUOUS
 62
    7
 10
1388.4082084272818
 20
578.98067989864865
 11
1387.9082164985332
 21
579.48071557122307
  0
LINE
  8
_1-0_
  6
CONTINUOUS
 62
    7
 10
1388.9082003560304
 20
579.48071557122307
 11
1388.4082084272818
 21
578.98067989864865
  0
LINE
  8
_1-0_
  6
CONTINUOUS
 62
    7
 10
1388.9082003560304
 20
626.48070051863385
 11
1388.9082003560304
 21
579.48071557122307
  0
LINE
  8
_1-0_
  6
CONTINUOUS
 62
    7
 10
1388.4082084272818
 20
626.98069244738247
 11
1388.9082003560304
 21
626.48070051863385
  0
LINE
  8
_1-0_
  6
CONTINUOUS
 62
    7
 10
1384.9081774383899
 20
588.98069344892463
 11
1384.9081774383899
 21
616.98067889710649
  0
LINE
  8
_1-0_
  6
CONTINUOUS
 62
    7
 10
1386.9082326410357
 20
588.98069344892463
 11
1384.9081774383899
 21
588.98069344892463
  0
LINE
  8
_1-0_
  6
CONTINUOUS
 62
    7
 10
1386.9082326410357
 20
616.98067889710649
 11
1386.9082326410357
 21
588.98069344892463
  0
LINE
  8
_1-0_
  6
CONTINUOUS
 62
    7
 10
1384.9081774383899
 20
616.98067889710649
 11
1386.9082326410357
 21
616.98067889710649
  0
LINE
  8
_1-0_
  6
CONTINUOUS
 62
    7
 10
1428.9082545571343
 20
542.98069235901107
 11
1428.9082545571343
 21
662.98067998701993
  0
LINE
  8
_1-0_
  6
CONTINUOUS
 62
    7
 10
1434.9082451897698
 20
542.98069235901107
 11
1428.9082545571343
 21
542.98069235901107
  0
LINE
  8
_1-0_
  6
CONTINUOUS
 62
    7
 10
1428.9082545571343
 20
662.98067998701993
 11
1434.9082451897698
 21
662.98067998701993
  0
LINE
  8
_1-0_
  6
CONTINUOUS
 62
    7
 10
1333.3148720641852
 20
576.98071218365408
 11
1333.3148720641852
 21
628.98070390620285
  0
LINE
  8
_1-0_
  6
CONTINUOUS
 62
    7
 10
1409.3148700611009
 20
576.98071218365408
 11
1333.3148720641852
 21
576.98071218365408
  0
LINE
  8
_1-0_
  6
CONTINUOUS
 62
    7
 10
1409.3148700611009
 20
628.98070390620285
 11
1409.3148700611009
 21
576.98071218365408
  0
LINE
  8
_1-0_
  6
CONTINUOUS
 62
    7
 10
1333.3148720641852
 20
628.98070390620285
 11
1409.3148700611009
 21
628.98070390620285
  0
LINE
  8
_1-0_
  6
CONTINUOUS
 62
    7
 10
1397.3148013081789
 20
591.98068876524223
 11
1397.3148013081789
 21
613.98068358078876
  0
LINE
  8
_1-0_
  6
CONTINUOUS
 62
    7
 10
1409.3148700611009
 20
591.98068876524223
 11
1397.3148013081789
 21
591.98068876524223
  0
LINE
  8
_1-0_
  6
CONTINUOUS
 62
    7
 10
1409.3148700611009
 20
613.98068358078876
 11
1409.3148700611009
 21
591.98068876524223
  0
LINE
  8
_1-0_
  6
CONTINUOUS
 62
    7
 10
1397.3148013081789
 20
613.98068358078876
 11
1409.3148700611009
 21
613.98068358078876
  0
LINE
  8
_1-1_
  6
CONTINUOUS
 62
    7
 10
1428.9082545571343
 20
456.35864360912421
 11
1428.9082545571343
 21
799.98069939926324
  0
LINE
  8
_1-2_
  6
CONTINUOUS
 62
    7
 10
1428.9082545571343
 20
659.38069435620389
 11
1428.9082545571343
 21
717.35867356701704
  0
LINE
  8
_1-0_
  6
CONTINUOUS
 62
    7
 10
371.11723748873555
 20
1346.6360043558834
 11
427.11720838509933
 21
1346.6360043558834
  0
LINE
  8
_1-0_
  6
CONTINUOUS
 62
    7
 10
427.11720838509933
 20
1346.6360043558834
 11
427.11720838509933
 21
1286.6360105418789
  0
LINE
  8
_1-0_
  6
CONTINUOUS
 62
    7
 10
427.11720838509933
 20
1286.6360105418789
 11
371.11723748873555
 21
1286.6360105418789
  0
LINE
  8
_1-0_
  6
CONTINUOUS
 62
    7
 10
371.11723748873555
 20
1286.6360105418789
 11
371.11723748873555
 21
1346.6360043558834
  0
LINE
  8
_1-0_
  6
CONTINUOUS
 62
    7
 10
389.11720938664143
 20
1280.6360199092437
 11
389.11720938664143
 21
1286.6360105418789
  0
LINE
  8
_1-0_
  6
CONTINUOUS
 62
    7
 10
389.11720938664143
 20
1286.6360105418789
 11
409.11723648719345
 21
1286.6360105418789
  0
LINE
  8
_1-0_
  6
CONTINUOUS
 62
    7
 10
409.11723648719345
 20
1286.6360105418789
 11
409.11723648719345
 21
1280.6360199092437
  0
LINE
  8
_1-0_
  6
CONTINUOUS
 62
    7
 10
371.11723748873555
 20
1377.6360288642086
 11
371.11723748873555
 21
1346.6360043558834
  0
LINE
  8
_1-0_
  6
CONTINUOUS
 62
    7
 10
371.11723748873555
 20
1346.6360043558834
 11
427.11720838509933
 21
1346.6360043558834
  0
LINE
  8
_1-0_
  6
CONTINUOUS
 62
    7
 10
427.11720838509933
 20
1346.6360043558834
 11
427.11720838509933
 21
1377.6360288642086
  0
LINE
  8
_1-0_
  6
CONTINUOUS
 62
    7
 10
371.11723748873555
 20
1391.6359778444737
 11
371.11723748873555
 21
1426.6360252704399
  0
LINE
  8
_1-0_
  6
CONTINUOUS
 62
    7
 10
371.11723748873555
 20
1426.6360252704399
 11
427.11720838509933
 21
1426.6360252704399
  0
LINE
  8
_1-0_
  6
CONTINUOUS
 62
    7
 10
427.11720838509933
 20
1426.6360252704399
 11
427.11720838509933
 21
1391.6359778444737
  0
LINE
  8
_1-0_
  6
CONTINUOUS
 62
    7
 10
425.09799338675833
 20
1461.6359852087544
 11
426.11722452760205
 21
1426.6360252704399
  0
LINE
  8
_1-0_
  6
CONTINUOUS
 62
    7
 10
373.13645248707655
 20
1461.6359852087544
 11
372.1172213462329
 21
1426.6360252704399
  0
LINE
  8
_1-0_
  6
CONTINUOUS
 62
    7
 10
425.09799338675833
 20
1476.6360055341684
 11
399.11722293691753
 21
1491.6359383719307
  0
LINE
  8
_1-0_
  6
CONTINUOUS
 62
    7
 10
399.11722293691753
 20
1491.6359383719307
 11
373.13645248707655
 21
1476.6360055341684
  0
LINE
  8
_1-0_
  6
CONTINUOUS
 62
    7
 10
373.13645248707655
 20
1476.6360055341684
 11
373.13645248707655
 21
1446.6359648833404
  0
LINE
  8
_1-0_
  6
CONTINUOUS
 62
    7
 10
373.13645248707655
 20
1446.6359648833404
 11
399.11722293691753
 21
1431.6360320455778
  0
LINE
  8
_1-0_
  6
CONTINUOUS
 62
    7
 10
399.11722293691753
 20
1431.6360320455778
 11
425.09799338675833
 21
1446.6359648833404
  0
LINE
  8
_1-0_
  6
CONTINUOUS
 62
    7
 10
425.09799338675833
 20
1446.6359648833404
 11
425.09799338675833
 21
1476.6360055341684
  0
LINE
  8
_1-0_
  6
CONTINUOUS
 62
    7
 10
339.28271201586625
 20
1391.6359778444737
 11
459.28269964387511
 21
1391.6359778444737
  0
LINE
  8
_1-0_
  6
CONTINUOUS
 62
    7
 10
459.28269964387511
 20
1391.6359778444737
 11
459.28269964387511
 21
1377.6360288642086
  0
LINE
  8
_1-0_
  6
CONTINUOUS
 62
    7
 10
459.28269964387511
 20
1377.6360288642086
 11
339.28271201586625
 21
1377.6360288642086
  0
LINE
  8
_1-0_
  6
CONTINUOUS
 62
    7
 10
339.28271201586625
 20
1377.6360288642086
 11
339.28271201586625
 21
1391.6359778444737
  0
LINE
  8
_1-1_
  6
CONTINUOUS
 62
    7
 10
357.11722289273183
 20
1280.6360199092437
 11
441.11724485301608
 21
1280.6360199092437
  0
LINE
  8
_1-1_
  6
CONTINUOUS
 62
    7
 10
441.11724485301608
 20
1280.6360199092437
 11
441.11724485301608
 21
1230.6360396455152
  0
LINE
  8
_1-1_
  6
CONTINUOUS
 62
    7
 10
441.11724485301608
 20
1230.6360396455152
 11
357.11722289273183
 21
1230.6360396455152
  0
LINE
  8
_1-1_
  6
CONTINUOUS
 62
    7
 10
357.11722289273183
 20
1230.6360396455152
 11
357.11722289273183
 21
1280.6360199092437
  0
LINE
  8
_1-2_
  6
CONTINUOUS
 62
    7
 10
409.19999980558288
 20
1392.5886308824693
 11
465.00001767427307
 21
1392.5886308824693
  0
LINE
  8
_1-2_
  6
CONTINUOUS
 62
    7
 10
460.00001089913496
 20
1392.5886308824693
 11
460.00001089913496
 21
1387.5886241073313
  0
LINE
  8
_1-0_
  6
CONTINUOUS
 62
    7
 10
851.11723174459689
 20
1346.6360043558834
 11
907.11720264096061
 21
1346.6360043558834
  0
LINE
  8
_1-0_
  6
CONTINUOUS
 62
    7
 10
907.11720264096061
 20
1346.6360043558834
 11
907.11720264096061
 21
1286.6360105418789
  0
LINE
  8
_1-0_
  6
CONTINUOUS
 62
    7
 10
907.11720264096061
 20
1286.6360105418789
 11
851.11723174459689
 21
1286.6360105418789
  0
LINE
  8
_1-0_
  6
CONTINUOUS
 62
    7
 10
851.11723174459689
 20
1286.6360105418789
 11
851.11723174459689
 21
1346.6360043558834
  0
LINE
  8
_1-0_
  6
CONTINUOUS
 62
    7
 10
869.11720364250277
 20
1280.6360199092437
 11
869.11720364250277
 21
1286.6360105418789
  0
LINE
  8
_1-0_
  6
CONTINUOUS
 62
    7
 10
869.11720364250277
 20
1286.6360105418789
 11
889.11723074305473
 21
1286.6360105418789
  0
LINE
  8
_1-0_
  6
CONTINUOUS
 62
    7
 10
889.11723074305473
 20
1286.6360105418789
 11
889.11723074305473
 21
1280.6360199092437
  0
LINE
  8
_1-0_
  6
CONTINUOUS
 62
    7
 10
907.11720264096061
 20
1391.6359778444737
 11
907.11720264096061
 21
1426.6360252704399
  0
LINE
  8
_1-0_
  6
CONTINUOUS
 62
    7
 10
907.11720264096061
 20
1426.6360252704399
 11
851.11723174459689
 21
1426.6360252704399
  0
LINE
  8
_1-0_
  6
CONTINUOUS
 62
    7
 10
851.11723174459689
 20
1426.6360252704399
 11
851.11723174459689
 21
1391.6359778444737
  0
LINE
  8
_1-0_
  6
CONTINUOUS
 62
    7
 10
907.11720264096061
 20
1377.6360288642086
 11
907.11720264096061
 21
1346.6360043558834
  0
LINE
  8
_1-0_
  6
CONTINUOUS
 62
    7
 10
907.11720264096061
 20
1346.6360043558834
 11
851.11723174459689
 21
1346.6360043558834
  0
LINE
  8
_1-0_
  6
CONTINUOUS
 62
    7
 10
851.11723174459689
 20
1346.6360043558834
 11
851.11723174459689
 21
1377.6360288642086
  0
LINE
  8
_1-0_
  6
CONTINUOUS
 62
    7
 10
905.09798764261961
 20
1461.6359852087544
 11
906.11721878346327
 21
1426.6360252704399
  0
LINE
  8
_1-0_
  6
CONTINUOUS
 62
    7
 10
853.13644674293778
 20
1461.6359852087544
 11
852.11721560209412
 21
1426.6360252704399
  0
LINE
  8
_1-0_
  6
CONTINUOUS
 62
    7
 10
905.09798764261961
 20
1476.6360055341684
 11
879.11721719277864
 21
1491.6359383719307
  0
LINE
  8
_1-0_
  6
CONTINUOUS
 62
    7
 10
879.11721719277864
 20
1491.6359383719307
 11
853.13644674293778
 21
1476.6360055341684
  0
LINE
  8
_1-0_
  6
CONTINUOUS
 62
    7
 10
853.13644674293778
 20
1476.6360055341684
 11
853.13644674293778
 21
1446.6359648833404
  0
LINE
  8
_1-0_
  6
CONTINUOUS
 62
    7
 10
853.13644674293778
 20
1446.6359648833404
 11
879.11721719277864
 21
1431.6360320455778
  0
LINE
  8
_1-0_
  6
CONTINUOUS
 62
    7
 10
879.11721719277864
 20
1431.6360320455778
 11
905.09798764261961
 21
1446.6359648833404
  0
LINE
  8
_1-0_
  6
CONTINUOUS
 62
    7
 10
905.09798764261961
 20
1446.6359648833404
 11
905.09798764261961
 21
1476.6360055341684
  0
LINE
  8
_1-0_
  6
CONTINUOUS
 62
    7
 10
819.28275001555335
 20
1391.6359778444737
 11
939.2827376435622
 21
1391.6359778444737
  0
LINE
  8
_1-0_
  6
CONTINUOUS
 62
    7
 10
939.2827376435622
 20
1391.6359778444737
 11
939.2827376435622
 21
1377.6360288642086
  0
LINE
  8
_1-0_
  6
CONTINUOUS
 62
    7
 10
939.2827376435622
 20
1377.6360288642086
 11
819.28275001555335
 21
1377.6360288642086
  0
LINE
  8
_1-0_
  6
CONTINUOUS
 62
    7
 10
819.28275001555335
 20
1377.6360288642086
 11
819.28275001555335
 21
1391.6359778444737
  0
LINE
  8
_1-1_
  6
CONTINUOUS
 62
    7
 10
837.11719527668015
 20
1280.6360199092437
 11
921.11723910887713
 21
1280.6360199092437
  0
LINE
  8
_1-1_
  6
CONTINUOUS
 62
    7
 10
921.11723910887713
 20
1280.6360199092437
 11
921.11723910887713
 21
1230.6360396455152
  0
LINE
  8
_1-1_
  6
CONTINUOUS
 62
    7
 10
921.11723910887713
 20
1230.6360396455152
 11
837.11719527668015
 21
1230.6360396455152
  0
LINE
  8
_1-1_
  6
CONTINUOUS
 62
    7
 10
837.11719527668015
 20
1230.6360396455152
 11
837.11719527668015
 21
1280.6360199092437
  0
LINE
  8
_1-2_
  6
CONTINUOUS
 62
    7
 10
889.19999406144427
 20
1392.5886308824693
 11
944.99996818630848
 21
1392.5886308824693
  0
LINE
  8
_1-0_
  6
CONTINUOUS
 62
    7
 10
579.28273101570983
 20
603.3586765716434
 11
579.28273101570983
 21
662.35864278432484
  0
LINE
  8
_1-0_
  6
CONTINUOUS
 62
    7
 10
579.28273101570983
 20
662.35864278432484
 11
579.30193455523045
 21
662.55374024733612
  0
LINE
  8
_1-0_
  6
CONTINUOUS
 62
    7
 10
579.30193455523045
 20
662.55374024733612
 11
579.35884527257963
 21
662.74135751613767
  0
LINE
  8
_1-0_
  6
CONTINUOUS
 62
    7
 10
579.35884527257963
 20
662.74135751613767
 11
579.45123223264227
 21
662.91423311564915
  0
LINE
  8
_1-0_
  6
CONTINUOUS
 62
    7
 10
579.45123223264227
 20
662.91423311564915
 11
579.5755959293557
 21
663.06576172817631
  0
LINE
  8
_1-0_
  6
CONTINUOUS
 62
    7
 10
579.5755959293557
 20
663.06576172817631
 11
579.72712454188286
 21
663.19012542488952
  0
LINE
  8
_1-0_
  6
CONTINUOUS
 62
    7
 10
579.72712454188286
 20
663.19012542488952
 11
579.90004388521993
 21
663.28255612877797
  0
LINE
  8
_1-0_
  6
CONTINUOUS
 62
    7
 10
579.90004388521993
 20
663.28255612877797
 11
580.08761741019589
 21
663.33942310230145
  0
LINE
  8
_1-0_
  6
CONTINUOUS
 62
    7
 10
580.08761741019589
 20
663.33942310230145
 11
580.28271487320706
 21
663.35867038564788
  0
LINE
  8
_1-0_
  6
CONTINUOUS
 62
    7
 10
580.28271487320706
 20
663.35867038564788
 11
639.2827248297142
 21
663.35867038564788
  0
LINE
  8
_1-0_
  6
CONTINUOUS
 62
    7
 10
639.2827248297142
 20
663.35867038564788
 11
698.28269104239553
 21
663.35867038564788
  0
LINE
  8
_1-0_
  6
CONTINUOUS
 62
    7
 10
698.28269104239553
 20
663.35867038564788
 11
698.47778850540692
 21
663.33942310230145
  0
LINE
  8
_1-0_
  6
CONTINUOUS
 62
    7
 10
698.47778850540692
 20
663.33942310230145
 11
698.66540577420847
 21
663.28255612877797
  0
LINE
  8
_1-0_
  6
CONTINUOUS
 62
    7
 10
698.66540577420847
 20
663.28255612877797
 11
698.83828137371995
 21
663.19012542488952
  0
LINE
  8
_1-0_
  6
CONTINUOUS
 62
    7
 10
698.83828137371995
 20
663.19012542488952
 11
698.98980998624711
 21
663.06576172817631
  0
LINE
  8
_1-0_
  6
CONTINUOUS
 62
    7
 10
698.98980998624711
 20
663.06576172817631
 11
699.11417368296031
 21
662.91423311564915
  0
LINE
  8
_1-0_
  6
CONTINUOUS
 62
    7
 10
699.11417368296031
 20
662.91423311564915
 11
699.20660438684877
 21
662.74135751613767
  0
LINE
  8
_1-0_
  6
CONTINUOUS
 62
    7
 10
699.20660438684877
 20
662.74135751613767
 11
699.26351510419806
 21
662.55374024733612
  0
LINE
  8
_1-0_
  6
CONTINUOUS
 62
    7
 10
699.26351510419806
 20
662.55374024733612
 11
699.28271864371868
 21
662.35864278432484
  0
LINE
  8
_1-0_
  6
CONTINUOUS
 62
    7
 10
699.28271864371868
 20
662.35864278432484
 11
699.28271864371868
 21
603.3586765716434
  0
LINE
  8
_1-0_
  6
CONTINUOUS
 62
    7
 10
699.28271864371868
 20
603.3586765716434
 11
699.28271864371868
 21
544.35866661513626
  0
LINE
  8
_1-0_
  6
CONTINUOUS
 62
    7
 10
699.28271864371868
 20
544.35866661513626
 11
699.26351510419806
 21
544.16356915212509
  0
LINE
  8
_1-0_
  6
CONTINUOUS
 62
    7
 10
699.26351510419806
 20
544.16356915212509
 11
699.20660438684877
 21
543.97595188332343
  0
LINE
  8
_1-0_
  6
CONTINUOUS
 62
    7
 10
699.20660438684877
 20
543.97595188332343
 11
699.11417368296031
 21
543.80307628381206
  0
LINE
  8
_1-0_
  6
CONTINUOUS
 62
    7
 10
699.11417368296031
 20
543.80307628381206
 11
698.98980998624711
 21
543.6515476712849
  0
LINE
  8
_1-0_
  6
CONTINUOUS
 62
    7
 10
698.98980998624711
 20
543.6515476712849
 11
698.83828137371995
 21
543.5271839745717
  0
LINE
  8
_1-0_
  6
CONTINUOUS
 62
    7
 10
698.83828137371995
 20
543.5271839745717
 11
698.66540577420847
 21
543.43479701450883
  0
LINE
  8
_1-0_
  6
CONTINUOUS
 62
    7
 10
698.66540577420847
 20
543.43479701450883
 11
698.47778850540692
 21
543.37788629715965
  0
LINE
  8
_1-0_
  6
CONTINUOUS
 62
    7
 10
698.47778850540692
 20
543.37788629715965
 11
698.28269104239553
 21
543.35863901381322
  0
LINE
  8
_1-0_
  6
CONTINUOUS
 62
    7
 10
698.28269104239553
 20
543.35863901381322
 11
639.2827248297142
 21
543.35863901381322
  0
LINE
  8
_1-0_
  6
CONTINUOUS
 62
    7
 10
639.2827248297142
 20
543.35863901381322
 11
580.28271487320706
 21
543.35863901381322
  0
LINE
  8
_1-0_
  6
CONTINUOUS
 62
    7
 10
580.28271487320706
 20
543.35863901381322
 11
580.08761741019589
 21
543.37788629715965
  0
LINE
  8
_1-0_
  6
CONTINUOUS
 62
    7
 10
580.08761741019589
 20
543.37788629715965
 11
579.90004388521993
 21
543.43479701450883
  0
LINE
  8
_1-0_
  6
CONTINUOUS
 62
    7
 10
579.90004388521993
 20
543.43479701450883
 11
579.72712454188286
 21
543.5271839745717
  0
LINE
  8
_1-0_
  6
CONTINUOUS
 62
    7
 10
579.72712454188286
 20
543.5271839745717
 11
579.5755959293557
 21
543.6515476712849
  0
LINE
  8
_1-0_
  6
CONTINUOUS
 62
    7
 10
579.5755959293557
 20
543.6515476712849
 11
579.45123223264227
 21
543.80307628381206
  0
LINE
  8
_1-0_
  6
CONTINUOUS
 62
    7
 10
579.45123223264227
 20
543.80307628381206
 11
579.35884527257963
 21
543.97595188332343
  0
LINE
  8
_1-0_
  6
CONTINUOUS
 62
    7
 10
579.35884527257963
 20
543.97595188332343
 11
579.30193455523045
 21
544.16356915212509
  0
LINE
  8
_1-0_
  6
CONTINUOUS
 62
    7
 10
579.30193455523045
 20
544.16356915212509
 11
579.28273101570983
 21
544.35866661513626
  0
LINE
  8
_1-0_
  6
CONTINUOUS
 62
    7
 10
579.28273101570983
 20
544.35866661513626
 11
579.28273101570983
 21
603.3586765716434
  0
LINE
  8
_1-0_
  6
CONTINUOUS
 62
    7
 10
604.50962037193267
 20
594.81323271644624
 11
604.77654519688656
 21
593.07594667530429
  0
LINE
  8
_1-0_
  6
CONTINUOUS
 62
    7
 10
604.77654519688656
 20
593.07594667530429
 11
606.05277131423065
 21
587.6703908912923
  0
LINE
  8
_1-0_
  6
CONTINUOUS
 62
    7
 10
606.05277131423065
 20
587.6703908912923
 11
608.16769780339428
 21
582.5346907685622
  0
LINE
  8
_1-0_
  6
CONTINUOUS
 62
    7
 10
608.16769780339428
 20
582.5346907685622
 11
611.06817591604567
 21
577.79797808083788
  0
LINE
  8
_1-0_
  6
CONTINUOUS
 62
    7
 10
611.06817591604567
 20
577.79797808083788
 11
614.6811097192948
 21
573.57954224104117
  0
LINE
  8
_1-0_
  6
CONTINUOUS
 62
    7
 10
614.6811097192948
 20
573.57954224104117
 11
618.91568703080691
 21
569.98550577053231
  0
LINE
  8
_1-0_
  6
CONTINUOUS
 62
    7
 10
618.91568703080691
 20
569.98550577053231
 11
623.6653041471385
 21
567.10628715721339
  0
LINE
  8
_1-0_
  6
CONTINUOUS
 62
    7
 10
623.6653041471385
 20
567.10628715721339
 11
628.81045293623868
 21
565.01432617658804
  0
LINE
  8
_1-0_
  6
CONTINUOUS
 62
    7
 10
628.81045293623868
 20
565.01432617658804
 11
634.22165167377727
 21
563.76229039490443
  0
LINE
  8
_1-0_
  6
CONTINUOUS
 62
    7
 10
634.22165167377727
 20
563.76229039490443
 11
644.60363631082771
 21
563.76229039490443
  0
LINE
  8
_1-0_
  6
CONTINUOUS
 62
    7
 10
644.60363631082771
 20
563.76229039490443
 11
644.68246268489634
 21
563.77401374021554
  0
LINE
  8
_1-0_
  6
CONTINUOUS
 62
    7
 10
644.68246268489634
 20
563.77401374021554
 11
650.24234668628583
 21
565.07373029200721
  0
LINE
  8
_1-0_
  6
CONTINUOUS
 62
    7
 10
650.24234668628583
 20
565.07373029200721
 11
655.51693345589058
 21
567.26013419250717
  0
LINE
  8
_1-0_
  6
CONTINUOUS
 62
    7
 10
655.51693345589058
 20
567.26013419250717
 11
660.3658053129335
 21
570.2750024095925
  0
LINE
  8
_1-0_
  6
CONTINUOUS
 62
    7
 10
660.3658053129335
 20
570.2750024095925
 11
664.66000545899374
 21
574.03819625442088
  0
LINE
  8
_1-0_
  6
CONTINUOUS
 62
    7
 10
664.66000545899374
 20
574.03819625442088
 11
668.28514378963746
 21
578.44949862211365
  0
LINE
  8
_1-0_
  6
CONTINUOUS
 62
    7
 10
668.28514378963746
 20
578.44949862211365
 11
671.14485265665519
 21
583.39154482808351
  0
LINE
  8
_1-0_
  6
CONTINUOUS
 62
    7
 10
671.14485265665519
 20
583.39154482808351
 11
673.16293031552573
 21
588.7327971881881
  0
LINE
  8
_1-0_
  6
CONTINUOUS
 62
    7
 10
673.16293031552573
 20
588.7327971881881
 11
674.28570309200791
 21
594.33108826861871
  0
LINE
  8
_1-0_
  6
CONTINUOUS
 62
    7
 10
674.28570309200791
 20
594.33108826861871
 11
674.50962773621313
 21
596.24794271461747
  0
LINE
  8
_1-0_
  6
CONTINUOUS
 62
    7
 10
674.50962773621313
 20
596.24794271461747
 11
674.50962773621313
 21
636.76229307550261
  0
LINE
  8
_1-0_
  6
CONTINUOUS
 62
    7
 10
674.50962773621313
 20
636.76229307550261
 11
674.47117691334608
 21
637.15248800152517
  0
LINE
  8
_1-0_
  6
CONTINUOUS
 62
    7
 10
674.47117691334608
 20
637.15248800152517
 11
674.35735547864749
 21
637.52763505147686
  0
LINE
  8
_1-0_
  6
CONTINUOUS
 62
    7
 10
674.35735547864749
 20
637.52763505147686
 11
674.17253781469628
 21
637.87342999432531
  0
LINE
  8
_1-0_
  6
CONTINUOUS
 62
    7
 10
674.17253781469628
 20
637.87342999432531
 11
673.92381042126988
 21
638.17648721937962
  0
LINE
  8
_1-0_
  6
CONTINUOUS
 62
    7
 10
673.92381042126988
 20
638.17648721937962
 11
673.62075319621556
 21
638.42521461280614
  0
LINE
  8
_1-0_
  6
CONTINUOUS
 62
    7
 10
673.62075319621556
 20
638.42521461280614
 11
673.274958253367
 21
638.61003227675735
  0
LINE
  8
_1-0_
  6
CONTINUOUS
 62
    7
 10
673.274958253367
 20
638.61003227675735
 11
672.8997674595895
 21
638.72385371145594
  0
LINE
  8
_1-0_
  6
CONTINUOUS
 62
    7
 10
672.8997674595895
 20
638.72385371145594
 11
672.50961627739275
 21
638.76230453432288
  0
LINE
  8
_1-0_
  6
CONTINUOUS
 62
    7
 10
672.50961627739275
 20
638.76230453432288
 11
639.5096240540729
 21
638.76230453432288
  0
LINE
  8
_1-0_
  6
CONTINUOUS
 62
    7
 10
639.5096240540729
 20
638.76230453432288
 11
606.50958808692724
 21
638.76230453432288
  0
LINE
  8
_1-0_
  6
CONTINUOUS
 62
    7
 10
606.50958808692724
 20
638.76230453432288
 11
606.11943690473049
 21
638.72385371145594
  0
LINE
  8
_1-0_
  6
CONTINUOUS
 62
    7
 10
606.11943690473049
 20
638.72385371145594
 11
605.74424611095287
 21
638.61003227675735
  0
LINE
  8
_1-0_
  6
CONTINUOUS
 62
    7
 10
605.74424611095287
 20
638.61003227675735
 11
605.39845116810454
 21
638.42521461280614
  0
LINE
  8
_1-0_
  6
CONTINUOUS
 62
    7
 10
605.39845116810454
 20
638.42521461280614
 11
605.09539394305023
 21
638.17648721937962
  0
LINE
  8
_1-0_
  6
CONTINUOUS
 62
    7
 10
605.09539394305023
 20
638.17648721937962
 11
604.84666654962371
 21
637.87342999432531
  0
LINE
  8
_1-0_
  6
CONTINUOUS
 62
    7
 10
604.84666654962371
 20
637.87342999432531
 11
604.66184888567238
 21
637.52763505147686
  0
LINE
  8
_1-0_
  6
CONTINUOUS
 62
    7
 10
604.66184888567238
 20
637.52763505147686
 11
604.5480274509739
 21
637.15248800152517
  0
LINE
  8
_1-0_
  6
CONTINUOUS
 62
    7
 10
604.5480274509739
 20
637.15248800152517
 11
604.50962037193267
 21
636.76229307550261
  0
LINE
  8
_1-0_
  6
CONTINUOUS
 62
    7
 10
604.50962037193267
 20
636.76229307550261
 11
604.50962037193267
 21
594.81323271644624
  0
LINE
  8
_1-0_
  6
CONTINUOUS
 62
    7
 10
604.53849129695232
 20
624.43453932360785
 11
604.53849129695232
 21
636.75783120527228
  0
LINE
  8
_1-0_
  6
CONTINUOUS
 62
    7
 10
604.53849129695232
 20
636.75783120527228
 11
604.57694211981925
 21
637.14802613129484
  0
LINE
  8
_1-0_
  6
CONTINUOUS
 62
    7
 10
604.57694211981925
 20
637.14802613129484
 11
604.69076355451773
 21
637.52317318124653
  0
LINE
  8
_1-0_
  6
CONTINUOUS
 62
    7
 10
604.69076355451773
 20
637.52317318124653
 11
604.87558121846916
 21
637.86896812409498
  0
LINE
  8
_1-0_
  6
CONTINUOUS
 62
    7
 10
604.87558121846916
 20
637.86896812409498
 11
605.12430861189557
 21
638.17202534914929
  0
LINE
  8
_1-0_
  6
CONTINUOUS
 62
    7
 10
605.12430861189557
 20
638.17202534914929
 11
605.42736583694989
 21
638.42075274257581
  0
LINE
  8
_1-0_
  6
CONTINUOUS
 62
    7
 10
605.42736583694989
 20
638.42075274257581
 11
605.77311703597252
 21
638.60557040652702
  0
LINE
  8
_1-0_
  6
CONTINUOUS
 62
    7
 10
605.77311703597252
 20
638.60557040652702
 11
606.14830782975002
 21
638.71939184122562
  0
LINE
  8
_1-0_
  6
CONTINUOUS
 62
    7
 10
606.14830782975002
 20
638.71939184122562
 11
606.5385027557727
 21
638.75784266409266
  0
LINE
  8
_1-0_
  6
CONTINUOUS
 62
    7
 10
606.5385027557727
 20
638.75784266409266
 11
639.53849497909243
 21
638.75784266409266
  0
LINE
  8
_1-0_
  6
CONTINUOUS
 62
    7
 10
639.53849497909243
 20
638.75784266409266
 11
672.5384872024124
 21
638.75784266409266
  0
LINE
  8
_1-0_
  6
CONTINUOUS
 62
    7
 10
672.5384872024124
 20
638.75784266409266
 11
672.92868212843484
 21
638.71939184122562
  0
LINE
  8
_1-0_
  6
CONTINUOUS
 62
    7
 10
672.92868212843484
 20
638.71939184122562
 11
673.30387292221246
 21
638.60557040652702
  0
LINE
  8
_1-0_
  6
CONTINUOUS
 62
    7
 10
673.30387292221246
 20
638.60557040652702
 11
673.64962412123509
 21
638.42075274257581
  0
LINE
  8
_1-0_
  6
CONTINUOUS
 62
    7
 10
673.64962412123509
 20
638.42075274257581
 11
673.95272509011522
 21
638.17202534914929
  0
LINE
  8
_1-0_
  6
CONTINUOUS
 62
    7
 10
673.95272509011522
 20
638.17202534914929
 11
674.20145248354174
 21
637.86896812409498
  0
LINE
  8
_1-0_
  6
CONTINUOUS
 62
    7
 10
674.20145248354174
 20
637.86896812409498
 11
674.38627014749295
 21
637.52317318124653
  0
LINE
  8
_1-0_
  6
CONTINUOUS
 62
    7
 10
674.38627014749295
 20
637.52317318124653
 11
674.50009158219143
 21
637.14802613129484
  0
LINE
  8
_1-0_
  6
CONTINUOUS
 62
    7
 10
674.50009158219143
 20
637.14802613129484
 11
674.53849866123267
 21
636.75783120527228
  0
LINE
  8
_1-0_
  6
CONTINUOUS
 62
    7
 10
674.53849866123267
 20
636.75783120527228
 11
674.53849866123267
 21
624.43453932360785
  0
LINE
  8
_1-0_
  6
CONTINUOUS
 62
    7
 10
674.53849866123267
 20
624.43453932360785
 11
674.53849866123267
 21
612.11129118576923
  0
LINE
  8
_1-0_
  6
CONTINUOUS
 62
    7
 10
674.53849866123267
 20
612.11129118576923
 11
674.50009158219143
 21
611.72109625974667
  0
LINE
  8
_1-0_
  6
CONTINUOUS
 62
    7
 10
674.50009158219143
 20
611.72109625974667
 11
674.38627014749295
 21
611.34590546596917
  0
LINE
  8
_1-0_
  6
CONTINUOUS
 62
    7
 10
674.38627014749295
 20
611.34590546596917
 11
674.20145248354174
 21
611.00015426694654
  0
LINE
  8
_1-0_
  6
CONTINUOUS
 62
    7
 10
674.20145248354174
 20
611.00015426694654
 11
673.95272509011522
 21
610.69705329806641
  0
LINE
  8
_1-0_
  6
CONTINUOUS
 62
    7
 10
673.95272509011522
 20
610.69705329806641
 11
673.64962412123509
 21
610.44832590464
  0
LINE
  8
_1-0_
  6
CONTINUOUS
 62
    7
 10
673.64962412123509
 20
610.44832590464
 11
673.30387292221246
 21
610.26350824068868
  0
LINE
  8
_1-0_
  6
CONTINUOUS
 62
    7
 10
673.30387292221246
 20
610.26350824068868
 11
672.92868212843484
 21
610.1496868059902
  0
LINE
  8
_1-0_
  6
CONTINUOUS
 62
    7
 10
672.92868212843484
 20
610.1496868059902
 11
672.5384872024124
 21
610.11127972694896
  0
LINE
  8
_1-0_
  6
CONTINUOUS
 62
    7
 10
672.5384872024124
 20
610.11127972694896
 11
639.53849497909243
 21
610.11127972694896
  0
LINE
  8
_1-0_
  6
CONTINUOUS
 62
    7
 10
639.53849497909243
 20
610.11127972694896
 11
606.5385027557727
 21
610.11127972694896
  0
LINE
  8
_1-0_
  6
CONTINUOUS
 62
    7
 10
606.5385027557727
 20
610.11127972694896
 11
606.14830782975002
 21
610.1496868059902
  0
LINE
  8
_1-0_
  6
CONTINUOUS
 62
    7
 10
606.14830782975002
 20
610.1496868059902
 11
605.77311703597252
 21
610.26350824068868
  0
LINE
  8
_1-0_
  6
CONTINUOUS
 62
    7
 10
605.77311703597252
 20
610.26350824068868
 11
605.42736583694989
 21
610.44832590464
  0
LINE
  8
_1-0_
  6
CONTINUOUS
 62
    7
 10
605.42736583694989
 20
610.44832590464
 11
605.12430861189557
 21
610.69705329806641
  0
LINE
  8
_1-0_
  6
CONTINUOUS
 62
    7
 10
605.12430861189557
 20
610.69705329806641
 11
604.87558121846916
 21
611.00015426694654
  0
LINE
  8
_1-0_
  6
CONTINUOUS
 62
    7
 10
604.87558121846916
 20
611.00015426694654
 11
604.69076355451773
 21
611.34590546596917
  0
LINE
  8
_1-0_
  6
CONTINUOUS
 62
    7
 10
604.69076355451773
 20
611.34590546596917
 11
604.57694211981925
 21
611.72109625974667
  0
LINE
  8
_1-0_
  6
CONTINUOUS
 62
    7
 10
604.57694211981925
 20
611.72109625974667
 11
604.53849129695232
 21
612.11129118576923
  0
LINE
  8
_1-0_
  6
CONTINUOUS
 62
    7
 10
604.53849129695232
 20
612.11129118576923
 11
604.53849129695232
 21
624.43453932360785
  0
LINE
  8
_1-0_
  6
CONTINUOUS
 62
    7
 10
615.68647406736386
 20
609.97160569121013
 11
663.6864866160978
 21
609.97160569121013
  0
LINE
  8
_1-0_
  6
CONTINUOUS
 62
    7
 10
663.6864866160978
 20
609.97160569121013
 11
663.6864866160978
 21
595.9716129671192
  0
LINE
  8
_1-0_
  6
CONTINUOUS
 62
    7
 10
663.6864866160978
 20
595.9716129671192
 11
615.68647406736386
 21
595.9716129671192
  0
LINE
  8
_1-0_
  6
CONTINUOUS
 62
    7
 10
615.68647406736386
 20
595.9716129671192
 11
615.68647406736386
 21
609.97160569121013
  0
LINE
  8
_1-0_
  6
CONTINUOUS
 62
    7
 10
1388.884666177757
 20
584.75582726673724
 11
1388.884666177757
 21
622.7558262651952
  0
LINE
  8
_1-0_
  6
CONTINUOUS
 62
    7
 10
1428.8847203788609
 20
584.75582726673724
 11
1388.884666177757
 21
584.75582726673724
  0
LINE
  8
_1-0_
  6
CONTINUOUS
 62
    7
 10
1388.884666177757
 20
622.7558262651952
 11
1428.8847203788609
 21
622.7558262651952
  0
LINE
  8
_1-0_
  6
CONTINUOUS
 62
    7
 10
1394.6347920774951
 20
584.79462804021057
 11
1393.6698032806275
 21
582.77746900168165
  0
LINE
  8
_1-0_
  6
CONTINUOUS
 62
    7
 10
1393.9715481909084
 20
622.78885285366448
 11
1394.6347920774951
 21
584.79462804021057
  0
LINE
  8
_1-0_
  6
CONTINUOUS
 62
    7
 10
1392.9368317357362
 20
624.77106057538947
 11
1393.9715481909084
 21
622.78885285366448
  0
LINE
  8
_1-0_
  6
CONTINUOUS
 62
    7
 10
1391.9719304265204
 20
622.75394528068625
 11
1392.9368317357362
 21
624.77106057538947
  0
LINE
  8
_1-0_
  6
CONTINUOUS
 62
    7
 10
1392.6350868254553
 20
584.75972046723234
 11
1391.9719304265204
 21
622.75394528068625
  0
LINE
  8
_1-0_
  6
CONTINUOUS
 62
    7
 10
1393.6698032806275
 20
582.77746900168165
 11
1392.6350868254553
 21
584.75972046723234
  0
LINE
  8
_1-0_
  6
CONTINUOUS
 62
    7
 10
1397.6487416742389
 20
584.79462804021057
 11
1396.6838403650231
 21
582.77746900168165
  0
LINE
  8
_1-0_
  6
CONTINUOUS
 62
    7
 10
1396.9855852753039
 20
622.78885285366448
 11
1397.6487416742389
 21
584.79462804021057
  0
LINE
  8
_1-0_
  6
CONTINUOUS
 62
    7
 10
1395.9507813324799
 20
624.77106057538947
 11
1396.9855852753039
 21
622.78885285366448
  0
LINE
  8
_1-0_
  6
CONTINUOUS
 62
    7
 10
1394.9858800232639
 20
622.75394528068625
 11
1395.9507813324799
 21
624.77106057538947
  0
LINE
  8
_1-0_
  6
CONTINUOUS
 62
    7
 10
1395.6490364221991
 20
584.75972046723234
 11
1394.9858800232639
 21
622.75394528068625
  0
LINE
  8
_1-0_
  6
CONTINUOUS
 62
    7
 10
1396.6838403650231
 20
582.77746900168165
 11
1395.6490364221991
 21
584.75972046723234
  0
LINE
  8
_1-0_
  6
CONTINUOUS
 62
    7
 10
1400.6626912709828
 20
584.79462804021057
 11
1399.6977899617671
 21
582.77746900168165
  0
LINE
  8
_1-0_
  6
CONTINUOUS
 62
    7
 10
1399.9995348720474
 20
622.78885285366448
 11
1400.6626912709828
 21
584.79462804021057
  0
LINE
  8
_1-0_
  6
CONTINUOUS
 62
    7
 10
1398.9647309292238
 20
624.77106057538947
 11
1399.9995348720474
 21
622.78885285366448
  0
LINE
  8
_1-0_
  6
CONTINUOUS
 62
    7
 10
1397.9998296200076
 20
622.75394528068625
 11
1398.9647309292238
 21
624.77106057538947
  0
LINE
  8
_1-0_
  6
CONTINUOUS
 62
    7
 10
1398.662986018943
 20
584.75972046723234
 11
1397.9998296200076
 21
622.75394528068625
  0
LINE
  8
_1-0_
  6
CONTINUOUS
 62
    7
 10
1399.6977899617671
 20
582.77746900168165
 11
1398.662986018943
 21
584.75972046723234
  0
LINE
  8
_1-0_
  6
CONTINUOUS
 62
    7
 10
1403.7862628951495
 20
584.79462804021057
 11
1402.8212740982822
 21
582.77746900168165
  0
LINE
  8
_1-0_
  6
CONTINUOUS
 62
    7
 10
1403.1230190085628
 20
622.78885285366448
 11
1403.7862628951495
 21
584.79462804021057
  0
LINE
  8
_1-0_
  6
CONTINUOUS
 62
    7
 10
1402.0883025533903
 20
624.77106057538947
 11
1403.1230190085628
 21
622.78885285366448
  0
LINE
  8
_1-0_
  6
CONTINUOUS
 62
    7
 10
1401.1234012441744
 20
622.75394528068625
 11
1402.0883025533903
 21
624.77106057538947
  0
LINE
  8
_1-0_
  6
CONTINUOUS
 62
    7
 10
1401.7865576431097
 20
584.75972046723234
 11
1401.1234012441744
 21
622.75394528068625
  0
LINE
  8
_1-0_
  6
CONTINUOUS
 62
    7
 10
1402.8212740982822
 20
582.77746900168165
 11
1401.7865576431097
 21
584.75972046723234
  0
LINE
  8
_1-0_
  6
CONTINUOUS
 62
    7
 10
1406.9097470316647
 20
584.79462804021057
 11
1405.9448457224489
 21
582.77746900168165
  0
LINE
  8
_1-0_
  6
CONTINUOUS
 62
    7
 10
1406.2465906327295
 20
622.78885285366448
 11
1406.9097470316647
 21
584.79462804021057
  0
LINE
  8
_1-0_
  6
CONTINUOUS
 62
    7
 10
1405.2118741775571
 20
624.77106057538947
 11
1406.2465906327295
 21
622.78885285366448
  0
LINE
  8
_1-0_
  6
CONTINUOUS
 62
    7
 10
1404.2468853806895
 20
622.75394528068625
 11
1405.2118741775571
 21
624.77106057538947
  0
LINE
  8
_1-0_
  6
CONTINUOUS
 62
    7
 10
1404.9100417796249
 20
584.75972046723234
 11
1404.2468853806895
 21
622.75394528068625
  0
LINE
  8
_1-0_
  6
CONTINUOUS
 62
    7
 10
1405.9448457224489
 20
582.77746900168165
 11
1404.9100417796249
 21
584.75972046723234
  0
LINE
  8
_1-0_
  6
CONTINUOUS
 62
    7
 10
1410.0333186558314
 20
584.79462804021057
 11
1409.0683298589638
 21
582.77746900168165
  0
LINE
  8
_1-0_
  6
CONTINUOUS
 62
    7
 10
1409.3700747692446
 20
622.78885285366448
 11
1410.0333186558314
 21
584.79462804021057
  0
LINE
  8
_1-0_
  6
CONTINUOUS
 62
    7
 10
1408.3353583140724
 20
624.77106057538947
 11
1409.3700747692446
 21
622.78885285366448
  0
LINE
  8
_1-0_
  6
CONTINUOUS
 62
    7
 10
1407.3704570048562
 20
622.75394528068625
 11
1408.3353583140724
 21
624.77106057538947
  0
LINE
  8
_1-0_
  6
CONTINUOUS
 62
    7
 10
1408.0336134037916
 20
584.75972046723234
 11
1407.3704570048562
 21
622.75394528068625
  0
LINE
  8
_1-0_
  6
CONTINUOUS
 62
    7
 10
1409.0683298589638
 20
582.77746900168165
 11
1408.0336134037916
 21
584.75972046723234
  0
LINE
  8
_1-0_
  6
CONTINUOUS
 62
    7
 10
1413.1568027923463
 20
584.79462804021057
 11
1412.1919014831306
 21
582.77746900168165
  0
LINE
  8
_1-0_
  6
CONTINUOUS
 62
    7
 10
1412.4936463934114
 20
622.78885285366448
 11
1413.1568027923463
 21
584.79462804021057
  0
LINE
  8
_1-0_
  6
CONTINUOUS
 62
    7
 10
1411.4589299382392
 20
624.77106057538947
 11
1412.4936463934114
 21
622.78885285366448
  0
LINE
  8
_1-0_
  6
CONTINUOUS
 62
    7
 10
1410.4939411413716
 20
622.75394528068625
 11
1411.4589299382392
 21
624.77106057538947
  0
LINE
  8
_1-0_
  6
CONTINUOUS
 62
    7
 10
1411.1570975403065
 20
584.75972046723234
 11
1410.4939411413716
 21
622.75394528068625
  0
LINE
  8
_1-0_
  6
CONTINUOUS
 62
    7
 10
1412.1919014831306
 20
582.77746900168165
 11
1411.1570975403065
 21
584.75972046723234
  0
LINE
  8
_1-0_
  6
CONTINUOUS
 62
    7
 10
1416.280374416513
 20
584.79462804021057
 11
1415.3153856196457
 21
582.77746900168165
  0
LINE
  8
_1-0_
  6
CONTINUOUS
 62
    7
 10
1415.6171305299265
 20
622.78885285366448
 11
1416.280374416513
 21
584.79462804021057
  0
LINE
  8
_1-0_
  6
CONTINUOUS
 62
    7
 10
1414.5824140747541
 20
624.77106057538947
 11
1415.6171305299265
 21
622.78885285366448
  0
LINE
  8
_1-0_
  6
CONTINUOUS
 62
    7
 10
1413.6175127655383
 20
622.75394528068625
 11
1414.5824140747541
 21
624.77106057538947
  0
LINE
  8
_1-0_
  6
CONTINUOUS
 62
    7
 10
1414.2806691644732
 20
584.75972046723234
 11
1413.6175127655383
 21
622.75394528068625
  0
LINE
  8
_1-0_
  6
CONTINUOUS
 62
    7
 10
1415.3153856196457
 20
582.77746900168165
 11
1414.2806691644732
 21
584.75972046723234
  0
LINE
  8
_1-0_
  6
CONTINUOUS
 62
    7
 10
1419.5134805804514
 20
584.79462804021057
 11
1418.5484917835838
 21
582.77746900168165
  0
LINE
  8
_1-0_
  6
CONTINUOUS
 62
    7
 10
1418.8502366938644
 20
622.78885285366448
 11
1419.5134805804514
 21
584.79462804021057
  0
LINE
  8
_1-0_
  6
CONTINUOUS
 62
    7
 10
1417.815520238692
 20
624.77106057538947
 11
1418.8502366938644
 21
622.78885285366448
  0
LINE
  8
_1-0_
  6
CONTINUOUS
 62
    7
 10
1416.8505314418246
 20
622.75394528068625
 11
1417.815520238692
 21
624.77106057538947
  0
LINE
  8
_1-0_
  6
CONTINUOUS
 62
    7
 10
1417.5137753284116
 20
584.75972046723234
 11
1416.8505314418246
 21
622.75394528068625
  0
LINE
  8
_1-0_
  6
CONTINUOUS
 62
    7
 10
1418.5484917835838
 20
582.77746900168165
 11
1417.5137753284116
 21
584.75972046723234
  0
LINE
  8
_1-0_
  6
CONTINUOUS
 62
    7
 10
1422.8561212841605
 20
584.79462804021057
 11
1421.8911324872934
 21
582.77746900168165
  0
LINE
  8
_1-0_
  6
CONTINUOUS
 62
    7
 10
1422.192877397574
 20
622.78885285366448
 11
1422.8561212841605
 21
584.79462804021057
  0
LINE
  8
_1-0_
  6
CONTINUOUS
 62
    7
 10
1421.1581609424015
 20
624.77106057538947
 11
1422.192877397574
 21
622.78885285366448
  0
LINE
  8
_1-0_
  6
CONTINUOUS
 62
    7
 10
1420.1931721455342
 20
622.75394528068625
 11
1421.1581609424015
 21
624.77106057538947
  0
LINE
  8
_1-0_
  6
CONTINUOUS
 62
    7
 10
1420.8564160321207
 20
584.75972046723234
 11
1420.1931721455342
 21
622.75394528068625
  0
LINE
  8
_1-0_
  6
CONTINUOUS
 62
    7
 10
1421.8911324872934
 20
582.77746900168165
 11
1420.8564160321207
 21
584.75972046723234
  0
LINE
  8
_1-0_
  6
CONTINUOUS
 62
    7
 10
1391.6115687896845
 20
584.80941345332667
 11
1390.6465799928171
 21
582.79225441479775
  0
LINE
  8
_1-0_
  6
CONTINUOUS
 62
    7
 10
1390.9483249030977
 20
622.80363826678058
 11
1391.6115687896845
 21
584.80941345332667
  0
LINE
  8
_1-0_
  6
CONTINUOUS
 62
    7
 10
1389.9136084479253
 20
624.78584598850557
 11
1390.9483249030977
 21
622.80363826678058
  0
LINE
  8
_1-0_
  6
CONTINUOUS
 62
    7
 10
1388.9486196510579
 20
622.76873069380235
 11
1389.9136084479253
 21
624.78584598850557
  0
LINE
  8
_1-0_
  6
CONTINUOUS
 62
    7
 10
1389.6118635376447
 20
584.77450588034844
 11
1388.9486196510579
 21
622.76873069380235
  0
LINE
  8
_1-0_
  6
CONTINUOUS
 62
    7
 10
1390.6465799928171
 20
582.79225441479775
 11
1389.6118635376447
 21
584.77450588034844
  0
LINE
  8
_1-0_
  6
CONTINUOUS
 62
    7
 10
1440.9082358224052
 20
543.35863901381322
 11
1428.9082545571343
 21
543.35863901381322
  0
LINE
  8
_1-0_
  6
CONTINUOUS
 62
    7
 10
1441.9082196799025
 20
662.35864278432484
 11
1441.9082196799025
 21
544.35866661513626
  0
LINE
  8
_1-0_
  6
CONTINUOUS
 62
    7
 10
1428.9082545571343
 20
663.35867038564788
 11
1440.9082358224052
 21
663.35867038564788
  0
LINE
  8
_1-0_
  6
CONTINUOUS
 62
    7
 10
1427.9081832119857
 20
544.35866661513626
 11
1427.9081832119857
 21
662.35864278432484
  0
LINE
  8
_1-0_
  6
CONTINUOUS
 62
    7
 10
1724.9802030467617
 20
592.4725880862203
 11
1723.2428732617941
 21
609.00237374324138
  0
LINE
  8
_1-0_
  6
CONTINUOUS
 62
    7
 10
1772.7173152025139
 20
597.48996116019589
 11
1724.9802030467617
 21
592.4725880862203
  0
LINE
  8
_1-0_
  6
CONTINUOUS
 62
    7
 10
1771.4189984531477
 20
609.84330505017601
 11
1772.7173152025139
 21
597.48996116019589
  0
LINE
  8
_1-0_
  6
CONTINUOUS
 62
    7
 10
1508.7833431052425
 20
566.09409877232133
 11
1509.0683778740722
 21
566.5682381000297
  0
LINE
  8
_1-0_
  6
CONTINUOUS
 62
    7
 10
1509.0683778740722
 20
566.5682381000297
 11
1509.357787025481
 21
567.04141506357087
  0
LINE
  8
_1-0_
  6
CONTINUOUS
 62
    7
 10
1509.357787025481
 20
567.04141506357087
 11
1509.6515705594684
 21
567.51362966294448
  0
LINE
  8
_1-0_
  6
CONTINUOUS
 62
    7
 10
1509.6515705594684
 20
567.51362966294448
 11
1509.9497284760346
 21
567.98488189815089
  0
LINE
  8
_1-0_
  6
CONTINUOUS
 62
    7
 10
1509.9497284760346
 20
567.98488189815089
 11
1510.2520857998763
 21
568.45517176918997
  0
LINE
  8
_1-0_
  6
CONTINUOUS
 62
    7
 10
1510.2520857998763
 20
568.45517176918997
 11
1510.5589924815999
 21
568.92449927606174
  0
LINE
  8
_1-0_
  6
CONTINUOUS
 62
    7
 10
1510.5589924815999
 20
568.92449927606174
 11
1510.8699235952959
 21
569.39286441876618
  0
LINE
  8
_1-0_
  6
CONTINUOUS
 62
    7
 10
1510.8699235952959
 20
569.39286441876618
 11
1511.1854040668736
 21
569.8602671973033
  0
LINE
  8
_1-0_
  6
CONTINUOUS
 62
    7
 10
1511.1854040668736
 20
569.8602671973033
 11
1514.238723106826
 21
574.03981477597506
  0
LINE
  8
_1-0_
  6
CONTINUOUS
 62
    7
 10
1514.238723106826
 20
574.03981477597506
 11
1517.559229434687
 21
577.99255061793974
  0
LINE
  8
_1-0_
  6
CONTINUOUS
 62
    7
 10
1517.559229434687
 20
577.99255061793974
 11
1521.1469230504567
 21
581.71847472319723
  0
LINE
  8
_1-0_
  6
CONTINUOUS
 62
    7
 10
1521.1469230504567
 20
581.71847472319723
 11
1525.0018039541353
 21
585.21763083557357
  0
LINE
  8
_1-0_
  6
CONTINUOUS
 62
    7
 10
1525.0018039541353
 20
585.21763083557357
 11
1529.1238721457228
 21
588.48993146741714
  0
LINE
  8
_1-0_
  6
CONTINUOUS
 62
    7
 10
1529.1238721457228
 20
588.48993146741714
 11
1533.5131276252187
 21
591.53546410637932
  0
LINE
  8
_1-0_
  6
CONTINUOUS
 62
    7
 10
1533.5131276252187
 20
591.53546410637932
 11
1538.1693954173202
 21
594.35422875246013
  0
LINE
  8
_1-0_
  6
CONTINUOUS
 62
    7
 10
1538.1693954173202
 20
594.35422875246013
 11
1543.0930254726334
 21
596.94613791800839
  0
LINE
  8
_1-0_
  6
CONTINUOUS
 62
    7
 10
1543.0930254726334
 20
596.94613791800839
 11
1548.1991547691314
 21
599.269766200003
  0
LINE
  8
_1-0_
  6
CONTINUOUS
 62
    7
 10
1548.1991547691314
 20
599.269766200003
 11
1553.4029202847867
 21
601.28355696394635
  0
LINE
  8
_1-0_
  6
CONTINUOUS
 62
    7
 10
1553.4029202847867
 20
601.28355696394635
 11
1558.7046719702053
 21
602.98755395366413
  0
LINE
  8
_1-0_
  6
CONTINUOUS
 62
    7
 10
1558.7046719702053
 20
602.98755395366413
 11
1564.1040598747813
 21
604.38171342533064
  0
LINE
  8
_1-0_
  6
CONTINUOUS
 62
    7
 10
1564.1040598747813
 20
604.38171342533064
 11
1569.6012589738175
 21
605.46607912277159
  0
LINE
  8
_1-0_
  6
CONTINUOUS
 62
    7
 10
1569.6012589738175
 20
605.46607912277159
 11
1575.1962692673142
 21
606.24065104598697
  0
LINE
  8
_1-0_
  6
CONTINUOUS
 62
    7
 10
1575.1962692673142
 20
606.24065104598697
 11
1580.8890907552711
 21
606.70534170732526
  0
LINE
  8
_1-0_
  6
CONTINUOUS
 62
    7
 10
1580.8890907552711
 20
606.70534170732526
 11
1586.6797234376884
 21
606.8602823382638
  0
LINE
  8
_1-0_
  6
CONTINUOUS
 62
    7
 10
1441.9137314019513
 20
563.84829075640232
 11
1504.7732591076706
 21
563.84829075640232
  0
LINE
  8
_1-0_
  6
CONTINUOUS
 62
    7
 10
1441.9137314019513
 20
638.84830489582077
 11
1441.9137314019513
 21
563.84829075640232
  0
LINE
  8
_1-0_
  6
CONTINUOUS
 62
    7
 10
1779.9136994704315
 20
638.84830489582077
 11
1441.9137314019513
 21
638.84830489582077
  0
LINE
  8
_1-0_
  6
CONTINUOUS
 62
    7
 10
1779.9136994704315
 20
609.99159661959493
 11
1779.9136994704315
 21
638.84830489582077
  0
LINE
  8
_1-0_
  6
CONTINUOUS
 62
    7
 10
1592.2659849660274
 20
606.71619017612056
 11
1779.9136994704315
 21
609.99159661959493
  0
LINE
  8
_1-1_
  6
CONTINUOUS
 62
    7
 10
367.83785035711446
 20
668.81295679158688
 11
371.98270908193706
 21
672.95781551640925
  0
LINE
  8
_1-1_
  6
CONTINUOUS
 62
    7
 10
367.83785035711446
 20
663.35867038564788
 11
367.83785035711446
 21
668.81295679158688
  0
LINE
  8
_1-1_
  6
CONTINUOUS
 62
    7
 10
367.83785035711446
 20
543.96816548233323
 11
367.83785035711446
 21
537.1026595126707
  0
LINE
  8
_1-1_
  6
CONTINUOUS
 62
    7
 10
368.1057812900616
 20
663.35867038564788
 11
368.1057812900616
 21
669.06487748429583
  0
LINE
  8
_1-1_
  6
CONTINUOUS
 62
    7
 10
368.1057812900616
 20
543.96816548233323
 11
368.1057812900616
 21
536.85073881996186
  0
LINE
  8
_1-1_
  6
CONTINUOUS
 62
    7
 10
382.82824704085527
 20
663.35867038564788
 11
382.82824704085527
 21
669.06487748429583
  0
LINE
  8
_1-1_
  6
CONTINUOUS
 62
    7
 10
382.82824704085527
 20
543.96816548233323
 11
382.82824704085527
 21
536.85073881996186
  0
LINE
  8
_1-1_
  6
CONTINUOUS
 62
    7
 10
384.56028382290287
 20
663.35867038564788
 11
384.56028382290287
 21
669.06487748429583
  0
LINE
  8
_1-1_
  6
CONTINUOUS
 62
    7
 10
384.56028382290287
 20
543.96816548233323
 11
384.56028382290287
 21
536.85073881996186
  0
LINE
  8
_1-1_
  6
CONTINUOUS
 62
    7
 10
371.98270908193706
 20
672.95781551640925
 11
426.58270257780458
 21
672.95781551640925
  0
LINE
  8
_1-1_
  6
CONTINUOUS
 62
    7
 10
414.00512783683865
 20
663.35867038564788
 11
414.00512783683865
 21
669.06487748429583
  0
LINE
  8
_1-1_
  6
CONTINUOUS
 62
    7
 10
414.00512783683865
 20
543.96816548233323
 11
414.00512783683865
 21
536.85073881996186
  0
LINE
  8
_1-1_
  6
CONTINUOUS
 62
    7
 10
415.73720836271178
 20
663.35867038564788
 11
415.73720836271178
 21
669.06487748429583
  0
LINE
  8
_1-1_
  6
CONTINUOUS
 62
    7
 10
415.73720836271178
 20
543.96816548233323
 11
415.73720836271178
 21
536.85073881996186
  0
LINE
  8
_1-1_
  6
CONTINUOUS
 62
    7
 10
430.45963036967976
 20
663.35867038564788
 11
430.45963036967976
 21
669.06487748429583
  0
LINE
  8
_1-1_
  6
CONTINUOUS
 62
    7
 10
430.45963036967976
 20
543.96816548233323
 11
430.45963036967976
 21
536.85073881996186
  0
LINE
  8
_1-1_
  6
CONTINUOUS
 62
    7
 10
430.7275613026269
 20
663.35867038564788
 11
430.7275613026269
 21
668.81295679158688
  0
LINE
  8
_1-1_
  6
CONTINUOUS
 62
    7
 10
430.7275613026269
 20
543.96816548233323
 11
430.7275613026269
 21
537.1026595126707
  0
LINE
  8
_1-1_
  6
CONTINUOUS
 62
    7
 10
430.46763548979879
 20
669.07288260441487
 11
426.58270257780458
 21
672.95781551640925
  0
LINE
  8
_1-1_
  6
CONTINUOUS
 62
    7
 10
426.58270257780458
 20
532.95780078784833
 11
430.46763548979879
 21
536.84273369984271
  0
LINE
  8
_1-1_
  6
CONTINUOUS
 62
    7
 10
371.98270908193706
 20
532.95780078784833
 11
426.58270257780458
 21
532.95780078784833
  0
LINE
  8
_1-1_
  6
CONTINUOUS
 62
    7
 10
371.98270908193706
 20
532.95780078784833
 11
367.83785035711446
 21
537.1026595126707
  0
LINE
  8
_1-1_
  6
CONTINUOUS
 62
    7
 10
419.15185140366714
 20
671.64764419025437
 11
419.15955031700577
 21
671.65188734135563
  0
LINE
  8
_1-1_
  6
CONTINUOUS
 62
    7
 10
419.13256037649489
 20
671.63701444058802
 11
419.15185140366714
 21
671.64764419025437
  0
LINE
  8
_1-1_
  6
CONTINUOUS
 62
    7
 10
418.91432242964214
 20
671.51304443830679
 11
418.94096241954674
 21
671.52852975263556
  0
LINE
  8
_1-1_
  6
CONTINUOUS
 62
    7
 10
418.61983899444226
 20
671.33614440682311
 11
418.64236706472269
 21
671.3500111995977
  0
LINE
  8
_1-1_
  6
CONTINUOUS
 62
    7
 10
418.41131217691429
 20
671.20421302824866
 11
418.44097049079807
 21
671.22332908011776
  0
LINE
  8
_1-1_
  6
CONTINUOUS
 62
    7
 10
417.92803038961637
 20
670.8779278317013
 11
417.94360319159665
 21
670.888863788148
  0
LINE
  8
_1-1_
  6
CONTINUOUS
 62
    7
 10
417.71508544568377
 20
670.72530562352949
 11
417.72960839584528
 21
670.73589162936992
  0
LINE
  8
_1-1_
  6
CONTINUOUS
 62
    7
 10
417.38114507962365
 20
670.475353402981
 11
417.38197621231365
 21
670.47600956036774
  0
LINE
  8
_1-1_
  6
CONTINUOUS
 62
    7
 10
417.17384308921783
 20
670.31393868582586
 11
417.21518100458684
 21
670.34639660456014
  0
LINE
  8
_1-1_
  6
CONTINUOUS
 62
    7
 10
415.94827232213561
 20
669.26194341946757
 11
415.97723073480665
 21
669.28871464084932
  0
LINE
  8
_1-1_
  6
CONTINUOUS
 62
    7
 10
430.44624475898888
 20
669.07747570612264
 11
430.45963036967976
 21
669.06487748429583
  0
LINE
  8
_1-1_
  6
CONTINUOUS
 62
    7
 10
430.03360925033746
 20
669.45800324664606
 11
430.04047703098604
 21
669.45179162338434
  0
LINE
  8
_1-1_
  6
CONTINUOUS
 62
    7
 10
429.54197239231416
 20
669.88839874856717
 11
429.6049635014478
 21
669.83455009902298
  0
LINE
  8
_1-1_
  6
CONTINUOUS
 62
    7
 10
429.20033311291547
 20
670.17190248349448
 11
429.20199537829546
 21
670.17059016872099
  0
LINE
  8
_1-1_
  6
CONTINUOUS
 62
    7
 10
428.39951489422759
 20
670.78497220190332
 11
428.50760588774801
 21
670.70649577844097
  0
LINE
  8
_1-1_
  6
CONTINUOUS
 62
    7
 10
427.41584748374908
 20
671.43421806423817
 11
427.46908371973223
 21
671.40232881523934
  0
LINE
  8
_1-1_
  6
CONTINUOUS
 62
    7
 10
426.75032891822127
 20
671.80446580570174
 11
426.7656392572469
 21
671.79659191706014
  0
LINE
  8
_1-1_
  6
CONTINUOUS
 62
    7
 10
426.45470814355093
 20
671.95043895235381
 11
426.4972271422161
 21
671.93009807336284
  0
LINE
  8
_1-1_
  6
CONTINUOUS
 62
    7
 10
426.03341135739356
 20
672.13840617176186
 11
426.11123162346917
 21
672.10533583946676
  0
LINE
  8
_1-1_
  6
CONTINUOUS
 62
    7
 10
425.42029789515908
 20
672.36876115835776
 11
425.42047287046216
 21
672.36867367070613
  0
LINE
  8
_1-1_
  6
CONTINUOUS
 62
    7
 10
425.10088047926018
 20
672.46788466759176
 11
425.10814195434091
 21
672.46582870777968
  0
LINE
  8
_1-1_
  6
CONTINUOUS
 62
    7
 10
424.44879126824929
 20
672.62518746512274
 11
424.49520346740951
 21
672.61613249318475
  0
LINE
  8
_1-1_
  6
CONTINUOUS
 62
    7
 10
423.61227808771901
 20
672.73839648626017
 11
423.6439486175891
 21
672.7358593443646
  0
LINE
  8
_1-1_
  6
CONTINUOUS
 62
    7
 10
422.90817746784694
 20
672.75528160301405
 11
422.92720603206448
 21
672.75567529744626
  0
LINE
  8
_1-1_
  6
CONTINUOUS
 62
    7
 10
421.29871088565551
 20
672.52343932634153
 11
421.40076523121706
 21
672.54916069590433
  0
LINE
  8
_1-1_
  6
CONTINUOUS
 62
    7
 10
420.67243053185894
 20
672.33324117181837
 11
420.67260550716213
 21
672.33328491564419
  0
LINE
  8
_1-1_
  6
CONTINUOUS
 62
    7
 10
419.75534122422857
 20
671.95673806326727
 11
419.7632588566961
 21
671.96054377611074
  0
LINE
  8
_1-1_
  6
CONTINUOUS
 62
    7
 10
419.15955031700577
 20
671.65188734135563
 11
419.20241926627727
 21
671.67546526345507
  0
LINE
  8
_1-1_
  6
CONTINUOUS
 62
    7
 10
413.96728942753271
 20
669.08272496521704
 11
414.00512783683865
 21
669.06487748429583
  0
LINE
  8
_1-1_
  6
CONTINUOUS
 62
    7
 10
412.80532218314505
 20
669.6129001337589
 11
412.82456946649148
 21
669.60441383155614
  0
LINE
  8
_1-1_
  6
CONTINUOUS
 62
    7
 10
411.53320798542507
 20
670.15265520014805
 11
411.61072204472021
 21
670.12098467027818
  0
LINE
  8
_1-1_
  6
CONTINUOUS
 62
    7
 10
410.37207187372746
 20
670.60605995443336
 11
410.40181767526281
 21
670.59494902268341
  0
LINE
  8
_1-1_
  6
CONTINUOUS
 62
    7
 10
408.0365452711186
 20
671.39839187091843
 11
408.19349811804329
 21
671.35014243107503
  0
LINE
  8
_1-1_
  6
CONTINUOUS
 62
    7
 10
407.10956985886025
 20
671.66584162178185
 11
407.12724236447826
 21
671.66107354477106
  0
LINE
  8
_1-1_
  6
CONTINUOUS
 62
    7
 10
405.22946022652292
 20
672.12208972474309
 11
405.34196934644768
 21
672.09829308351482
  0
LINE
  8
_1-1_
  6
CONTINUOUS
 62
    7
 10
404.05213889928405
 20
672.34728293989622
 11
404.11014321227782
 21
672.33722185996498
  0
LINE
  8
_1-1_
  6
CONTINUOUS
 62
    7
 10
403.03365140347864
 20
672.50318593500197
 11
403.04178775507512
 21
672.50209233935732
  0
LINE
  8
_1-1_
  6
CONTINUOUS
 62
    7
 10
400.9472458887285
 20
672.70733836995123
 11
401.03232762988466
 21
672.70208911085672
  0
LINE
  8
_1-1_
  6
CONTINUOUS
 62
    7
 10
397.8006212683718
 20
672.71774940048863
 11
397.83522263456945
 21
672.71963038499746
  0
LINE
  8
_1-1_
  6
CONTINUOUS
 62
    7
 10
396.69512730307559
 20
672.63625465304688
 11
396.69639587402344
 21
672.6363421406985
  0
LINE
  8
_1-1_
  6
CONTINUOUS
 62
    7
 10
395.58420910338185
 20
672.5102286909538
 11
395.59238919880397
 21
672.51127854277252
  0
LINE
  8
_1-1_
  6
CONTINUOUS
 62
    7
 10
394.46401721262106
 20
672.33879663769346
 11
394.47088499326952
 21
672.33997772098962
  0
LINE
  8
_1-1_
  6
CONTINUOUS
 62
    7
 10
392.21549707950317
 20
671.86421987172719
 11
392.23286337834065
 21
671.86855051048019
  0
LINE
  8
_1-1_
  6
CONTINUOUS
 62
    7
 10
391.06162244288612
 20
671.55530097401743
 11
391.07938243615581
 21
671.5603752578088
  0
LINE
  8
_1-1_
  6
CONTINUOUS
 62
    7
 10
388.72784559330881
 20
670.80181357483139
 11
388.75129228393075
 21
670.81021238938263
  0
LINE
  8
_1-1_
  6
CONTINUOUS
 62
    7
 10
387.36531290768653
 20
670.28694874531516
 11
387.54453136193706
 21
670.35746379248417
  0
LINE
  8
_1-1_
  6
CONTINUOUS
 62
    7
 10
386.39590598441458
 20
669.88839874856717
 11
386.43453178258483
 21
669.90493391471477
  0
LINE
  8
_1-1_
  6
CONTINUOUS
 62
    7
 10
384.56028382290287
 20
669.06487748429583
 11
384.71194366690725
 21
669.13631115180635
  0
LINE
  8
_1-1_
  6
CONTINUOUS
 62
    7
 10
382.81363660304237
 20
669.0786130455931
 11
382.82824704085527
 21
669.06487748429583
  0
LINE
  8
_1-1_
  6
CONTINUOUS
 62
    7
 10
382.36364386716872
 20
669.49264835666963
 11
382.3711678052041
 21
669.4859118074985
  0
LINE
  8
_1-1_
  6
CONTINUOUS
 62
    7
 10
381.82633845502352
 20
669.95956995312315
 11
381.89523498063835
 21
669.90121568952293
  0
LINE
  8
_1-1_
  6
CONTINUOUS
 62
    7
 10
381.44480480650685
 20
670.27168215011534
 11
381.45390352227054
 21
670.26446441886037
  0
LINE
  8
_1-1_
  6
CONTINUOUS
 62
    7
 10
381.07311351879218
 20
670.56026016883402
 11
381.08295587959435
 21
670.55273623079859
  0
LINE
  8
_1-1_
  6
CONTINUOUS
 62
    7
 10
380.71301434491136
 20
670.82442913276338
 11
380.72377532605486
 21
670.81681770707644
  0
LINE
  8
_1-1_
  6
CONTINUOUS
 62
    7
 10
379.31496167274975
 20
671.70140535214682
 11
379.33530255174077
 21
671.69055688335163
  0
LINE
  8
_1-1_
  6
CONTINUOUS
 62
    7
 10
378.62118459576351
 20
672.04348206980342
 11
378.66842792761361
 21
672.02226631429664
  0
LINE
  8
_1-1_
  6
CONTINUOUS
 62
    7
 10
378.13046635808178
 20
672.2468471158885
 11
378.1927575660028
 21
672.22265678022825
  0
LINE
  8
_1-1_
  6
CONTINUOUS
 62
    7
 10
377.73585330565453
 20
672.3859962257178
 11
377.79272027917813
 21
672.36744884358404
  0
LINE
  8
_1-1_
  6
CONTINUOUS
 62
    7
 10
377.23979832122677
 20
672.53026336316441
 11
377.27702431697185
 21
672.52059597766538
  0
LINE
  8
_1-1_
  6
CONTINUOUS
 62
    7
 10
376.88158013185472
 20
672.6124142679929
 11
376.9321479944648
 21
672.60200323745551
  0
LINE
  8
_1-1_
  6
CONTINUOUS
 62
    7
 10
376.45569024398981
 20
672.68634133357341
 11
376.4687696479001
 21
672.68446034906447
  0
LINE
  8
_1-1_
  6
CONTINUOUS
 62
    7
 10
375.97835761699901
 20
672.73861520538912
 11
376.01313395849985
 21
672.73581560053867
  0
LINE
  8
_1-1_
  6
CONTINUOUS
 62
    7
 10
375.54748093299423
 20
672.75733756282602
 11
375.60316682322139
 21
672.75650643013614
  0
LINE
  8
_1-1_
  6
CONTINUOUS
 62
    7
 10
375.26227118886112
 20
672.75471293327882
 11
375.28313699376156
 21
672.75532534683987
  0
LINE
  8
_1-1_
  6
CONTINUOUS
 62
    7
 10
374.76236674776402
 20
672.72151136950629
 11
374.81787766268809
 21
672.72680437242661
  0
LINE
  8
_1-1_
  6
CONTINUOUS
 62
    7
 10
373.72174487611034
 20
672.53717488763868
 11
373.77554978182872
 21
672.550691729807
  0
LINE
  8
_1-1_
  6
CONTINUOUS
 62
    7
 10
373.26247844916963
 20
672.40668705531516
 11
373.2626971682987
 21
672.40673079914109
  0
LINE
  8
_1-1_
  6
CONTINUOUS
 62
    7
 10
372.9790622018939
 20
672.31150049040207
 11
373.03557922481104
 21
672.3311852120064
  0
LINE
  8
_1-1_
  6
CONTINUOUS
 62
    7
 10
371.93542200626098
 20
671.86526972354602
 11
371.98857075459244
 21
671.89169099432161
  0
LINE
  8
_1-1_
  6
CONTINUOUS
 62
    7
 10
371.45664583301908
 20
671.6121679475408
 11
371.45703952745123
 21
671.61243041049556
  0
LINE
  8
_1-1_
  6
CONTINUOUS
 62
    7
 10
371.16277481138013
 20
671.44235441583464
 11
371.22121656263204
 21
671.47686829438067
  0
LINE
  8
_1-1_
  6
CONTINUOUS
 62
    7
 10
370.08917009508281
 20
670.7293300555018
 11
370.14345618288485
 21
670.76887447401361
  0
LINE
  8
_1-1_
  6
CONTINUOUS
 62
    7
 10
369.57828595371325
 20
670.34210970963284
 11
369.57885462344848
 21
670.34259089171655
  0
LINE
  8
_1-1_
  6
CONTINUOUS
 62
    7
 10
369.2649051857731
 20
670.09014527309819
 11
369.32719639369424
 21
670.14097559866298
  0
LINE
  8
_1-1_
  6
CONTINUOUS
 62
    7
 10
368.1057812900616
 20
669.06487748429583
 11
368.17887722295211
 21
669.13381775373648
  0
LINE
  8
_1-1_
  6
CONTINUOUS
 62
    7
 10
413.96728942753271
 20
536.83289133904066
 11
414.00512783683865
 21
536.85073881996186
  0
LINE
  8
_1-1_
  6
CONTINUOUS
 62
    7
 10
412.80532218314505
 20
536.30271617049868
 11
412.82456946649148
 21
536.31120247270144
  0
LINE
  8
_1-1_
  6
CONTINUOUS
 62
    7
 10
411.53320798542507
 20
535.76291736028361
 11
411.61072204472021
 21
535.79463163397941
  0
LINE
  8
_1-1_
  6
CONTINUOUS
 62
    7
 10
410.37207187372746
 20
535.30955634982422
 11
410.40181767526281
 21
535.32066728157429
  0
LINE
  8
_1-1_
  6
CONTINUOUS
 62
    7
 10
408.0365452711186
 20
534.51718068951345
 11
408.19349811804329
 21
534.56547387318255
  0
LINE
  8
_1-1_
  6
CONTINUOUS
 62
    7
 10
407.10956985886025
 20
534.24977468247573
 11
407.12724236447826
 21
534.25454275948664
  0
LINE
  8
_1-1_
  6
CONTINUOUS
 62
    7
 10
405.22946022652292
 20
533.79352657951449
 11
405.34196934644768
 21
533.81732322074276
  0
LINE
  8
_1-1_
  6
CONTINUOUS
 62
    7
 10
404.05213889928405
 20
533.56833336436148
 11
404.11014321227782
 21
533.57839444429248
  0
LINE
  8
_1-1_
  6
CONTINUOUS
 62
    7
 10
403.03365140347864
 20
533.41243036925562
 11
403.04178775507512
 21
533.41352396490026
  0
LINE
  8
_1-1_
  6
CONTINUOUS
 62
    7
 10
400.9472458887285
 20
533.20827793430635
 11
401.03232762988466
 21
533.21352719340086
  0
LINE
  8
_1-1_
  6
CONTINUOUS
 62
    7
 10
397.8006212683718
 20
533.19786690376895
 11
397.83522263456945
 21
533.19598591926012
  0
LINE
  8
_1-1_
  6
CONTINUOUS
 62
    7
 10
396.69512730307559
 20
533.27936165121071
 11
396.69639587402344
 21
533.27923041973327
  0
LINE
  8
_1-1_
  6
CONTINUOUS
 62
    7
 10
395.58420910338185
 20
533.4053876133039
 11
395.59238919880397
 21
533.40429401765914
  0
LINE
  8
_1-1_
  6
CONTINUOUS
 62
    7
 10
394.46401721262106
 20
533.57681966656423
 11
394.47088499326952
 21
533.57563858326796
  0
LINE
  8
_1-1_
  6
CONTINUOUS
 62
    7
 10
392.21549707950317
 20
534.0513964325304
 11
392.23286337834065
 21
534.04706579377751
  0
LINE
  8
_1-1_
  6
CONTINUOUS
 62
    7
 10
391.06162244288612
 20
534.36031533024016
 11
391.07938243615581
 21
534.3552410464489
  0
LINE
  8
_1-1_
  6
CONTINUOUS
 62
    7
 10
388.72784559330881
 20
535.1138027294262
 11
388.75129228393075
 21
535.10540391487507
  0
LINE
  8
_1-1_
  6
CONTINUOUS
 62
    7
 10
387.36531290768653
 20
535.62866755894242
 11
387.54453136193706
 21
535.55815251177341
  0
LINE
  8
_1-1_
  6
CONTINUOUS
 62
    7
 10
386.39590598441458
 20
536.02721755569041
 11
386.43453178258483
 21
536.01068238954281
  0
LINE
  8
_1-1_
  6
CONTINUOUS
 62
    7
 10
384.56028382290287
 20
536.85073881996186
 11
384.71194366690725
 21
536.77930515245112
  0
LINE
  8
_1-1_
  6
CONTINUOUS
 62
    7
 10
419.15539465355596
 20
534.26600364184287
 11
419.16313731072023
 21
534.26176049074149
  0
LINE
  8
_1-1_
  6
CONTINUOUS
 62
    7
 10
419.13610362638366
 20
534.27667713533492
 11
419.15539465355596
 21
534.26600364184287
  0
LINE
  8
_1-1_
  6
CONTINUOUS
 62
    7
 10
418.91729700979567
 20
534.40086585674499
 11
418.94402448735178
 21
534.38533679859052
  0
LINE
  8
_1-1_
  6
CONTINUOUS
 62
    7
 10
418.6220261857315
 20
534.57811583883517
 11
418.64464174366361
 21
534.56420530223477
  0
LINE
  8
_1-1_
  6
CONTINUOUS
 62
    7
 10
418.41301818611998
 20
534.71030968036428
 11
418.44276398765533
 21
534.69114988466936
  0
LINE
  8
_1-1_
  6
CONTINUOUS
 62
    7
 10
417.92846782787421
 20
535.03738226577582
 11
417.94417186133188
 21
535.02635882167738
  0
LINE
  8
_1-1_
  6
CONTINUOUS
 62
    7
 10
417.71512918950975
 20
535.19031068072809
 11
417.72978337114836
 21
535.17963718723604
  0
LINE
  8
_1-1_
  6
CONTINUOUS
 62
    7
 10
417.38114507962365
 20
535.4402629012767
 11
417.38197621231365
 21
535.43960674388984
  0
LINE
  8
_1-1_
  6
CONTINUOUS
 62
    7
 10
417.17384308921783
 20
535.60167761843172
 11
417.21513726076097
 21
535.56917595587174
  0
LINE
  8
_1-1_
  6
CONTINUOUS
 62
    7
 10
415.94827232213561
 20
536.65367288479013
 11
415.97723073480665
 21
536.62690166340826
  0
LINE
  8
_1-1_
  6
CONTINUOUS
 62
    7
 10
430.44624475898888
 20
536.83814059813506
 11
430.45963036967976
 21
536.85073881996186
  0
LINE
  8
_1-1_
  6
CONTINUOUS
 62
    7
 10
430.03360925033746
 20
536.45761305761152
 11
430.04047703098604
 21
536.46382468087336
  0
LINE
  8
_1-1_
  6
CONTINUOUS
 62
    7
 10
429.54197239231416
 20
536.02717381186471
 11
429.6049635014478
 21
536.08106620523461
  0
LINE
  8
_1-1_
  6
CONTINUOUS
 62
    7
 10
429.20033311291547
 20
535.74371382076311
 11
429.20199537829546
 21
535.7450261355367
  0
LINE
  8
_1-1_
  6
CONTINUOUS
 62
    7
 10
428.39951489422759
 20
535.13064410235427
 11
428.50760588774801
 21
535.20912052581662
  0
LINE
  8
_1-1_
  6
CONTINUOUS
 62
    7
 10
427.41584748374908
 20
534.48139824001942
 11
427.46908371973223
 21
534.51328748901835
  0
LINE
  8
_1-1_
  6
CONTINUOUS
 62
    7
 10
426.75032891822127
 20
534.11115049855584
 11
426.7656392572469
 21
534.11902438719756
  0
LINE
  8
_1-1_
  6
CONTINUOUS
 62
    7
 10
426.45470814355093
 20
533.96517735190378
 11
426.4972271422161
 21
533.98551823089474
  0
LINE
  8
_1-1_
  6
CONTINUOUS
 62
    7
 10
426.03341135739356
 20
533.77721013249572
 11
426.11123162346917
 21
533.81028046479094
  0
LINE
  8
_1-1_
  6
CONTINUOUS
 62
    7
 10
425.42029789515908
 20
533.54685514589983
 11
425.42047287046216
 21
533.54694263355145
  0
LINE
  8
_1-1_
  6
CONTINUOUS
 62
    7
 10
425.10088047926018
 20
533.44773163666594
 11
425.10814195434091
 21
533.4497875964779
  0
LINE
  8
_1-1_
  6
CONTINUOUS
 62
    7
 10
424.44879126824929
 20
533.29042883913485
 11
424.49520346740951
 21
533.29948381107283
  0
LINE
  8
_1-1_
  6
CONTINUOUS
 62
    7
 10
423.61227808771901
 20
533.17721981799741
 11
423.6439486175891
 21
533.17975695989298
  0
LINE
  8
_1-1_
  6
CONTINUOUS
 62
    7
 10
422.90817746784694
 20
533.16029095741771
 11
422.92720603206448
 21
533.15989726298562
  0
LINE
  8
_1-1_
  6
CONTINUOUS
 62
    7
 10
421.29871088565551
 20
533.39217697791605
 11
421.40076523121706
 21
533.36645560835314
  0
LINE
  8
_1-1_
  6
CONTINUOUS
 62
    7
 10
420.93183141877745
 20
533.49703092832817
 11
420.98375533998706
 21
533.48084571278696
  0
LINE
  8
_1-1_
  6
CONTINUOUS
 62
    7
 10
420.46700952596183
 20
533.65673963627751
 11
420.51823354595882
 21
533.63784230353747
  0
LINE
  8
_1-1_
  6
CONTINUOUS
 62
    7
 10
419.52087431800862
 20
534.07335583307565
 11
419.56680533508529
 21
534.05021534923424
  0
LINE
  8
_1-1_
  6
CONTINUOUS
 62
    7
 10
368.10547508328114
 20
669.06452753368956
 11
368.1057812900616
 21
669.06487748429583
  0
LINE
  8
_1-1_
  6
CONTINUOUS
 62
    7
 10
382.81363660304237
 20
536.83700325866459
 11
382.82824704085527
 21
536.85073881996186
  0
LINE
  8
_1-1_
  6
CONTINUOUS
 62
    7
 10
382.36364386716872
 20
536.42296794758795
 11
382.3711678052041
 21
536.4297044967592
  0
LINE
  8
_1-1_
  6
CONTINUOUS
 62
    7
 10
381.82633845502352
 20
535.95604635113455
 11
381.89523498063835
 21
536.01440061473477
  0
LINE
  8
_1-1_
  6
CONTINUOUS
 62
    7
 10
381.44480480650685
 20
535.64393415414224
 11
381.45390352227054
 21
535.6511518853971
  0
LINE
  8
_1-1_
  6
CONTINUOUS
 62
    7
 10
381.07311351879218
 20
535.35535613542356
 11
381.08295587959435
 21
535.362880073459
  0
LINE
  8
_1-1_
  6
CONTINUOUS
 62
    7
 10
380.71301434491136
 20
535.09118717149408
 11
380.72377532605486
 21
535.09879859718114
  0
LINE
  8
_1-1_
  6
CONTINUOUS
 62
    7
 10
379.31496167274975
 20
534.21421095211076
 11
379.33530255174077
 21
534.22505942090595
  0
LINE
  8
_1-1_
  6
CONTINUOUS
 62
    7
 10
378.62118459576351
 20
533.87213423445417
 11
378.66842792761361
 21
533.89334998996094
  0
LINE
  8
_1-1_
  6
CONTINUOUS
 62
    7
 10
378.13046635808178
 20
533.66876918836908
 11
378.1927575660028
 21
533.69295952402945
  0
LINE
  8
_1-1_
  6
CONTINUOUS
 62
    7
 10
377.73585330565453
 20
533.52962007853978
 11
377.79272027917813
 21
533.54816746067354
  0
LINE
  8
_1-1_
  6
CONTINUOUS
 62
    7
 10
377.23979832122677
 20
533.38530919726747
 11
377.27702431697185
 21
533.3950203265922
  0
LINE
  8
_1-1_
  6
CONTINUOUS
 62
    7
 10
376.88158013185472
 20
533.30320203626479
 11
376.9321479944648
 21
533.31361306680219
  0
LINE
  8
_1-1_
  6
CONTINUOUS
 62
    7
 10
376.45569024398981
 20
533.22927497068429
 11
376.4687696479001
 21
533.23115595519312
  0
LINE
  8
_1-1_
  6
CONTINUOUS
 62
    7
 10
375.97835761699901
 20
533.17700109886846
 11
376.01313395849985
 21
533.1798007037188
  0
LINE
  8
_1-1_
  6
CONTINUOUS
 62
    7
 10
375.54748093299423
 20
533.15827874143145
 11
375.60316682322139
 21
533.15910987412144
  0
LINE
  8
_1-1_
  6
CONTINUOUS
 62
    7
 10
375.26227118886112
 20
533.16090337097864
 11
375.28313699376156
 21
533.16029095741771
  0
LINE
  8
_1-1_
  6
CONTINUOUS
 62
    7
 10
374.76236674776402
 20
533.19410493475129
 11
374.81787766268809
 21
533.18881193183097
  0
LINE
  8
_1-1_
  6
CONTINUOUS
 62
    7
 10
373.72174487611034
 20
533.3784414166189
 11
373.77554978182872
 21
533.36492457445058
  0
LINE
  8
_1-1_
  6
CONTINUOUS
 62
    7
 10
373.26247844916963
 20
533.50892924894231
 11
373.2626971682987
 21
533.5088855051165
  0
LINE
  8
_1-1_
  6
CONTINUOUS
 62
    7
 10
372.9790622018939
 20
533.60411581385551
 11
373.03557922481104
 21
533.58443109225118
  0
LINE
  8
_1-1_
  6
CONTINUOUS
 62
    7
 10
371.93542200626098
 20
534.05034658071156
 11
371.98857075459244
 21
534.02392530993598
  0
LINE
  8
_1-1_
  6
CONTINUOUS
 62
    7
 10
371.45664583301908
 20
534.30344835671679
 11
371.45703952745123
 21
534.30318589376202
  0
LINE
  8
_1-1_
  6
CONTINUOUS
 62
    7
 10
371.16277481138013
 20
534.47326188842294
 11
371.22121656263204
 21
534.4387480098768
  0
LINE
  8
_1-1_
  6
CONTINUOUS
 62
    7
 10
370.08917009508281
 20
535.18628624875566
 11
370.14345618288485
 21
535.14674183024397
  0
LINE
  8
_1-1_
  6
CONTINUOUS
 62
    7
 10
369.57828595371325
 20
535.57350659462475
 11
369.57885462344848
 21
535.57302541254114
  0
LINE
  8
_1-1_
  6
CONTINUOUS
 62
    7
 10
369.2649051857731
 20
535.82547103115951
 11
369.32719639369424
 21
535.77464070559461
  0
LINE
  8
_1-1_
  6
CONTINUOUS
 62
    7
 10
368.1057812900616
 20
536.85073881996186
 11
368.17887722295211
 21
536.7817985505211
  0
LINE
  8
_1-1_
  6
CONTINUOUS
 62
    7
 10
367.83789410094045
 20
537.102615768845
 11
367.83785035711446
 21
537.1026595126707
  0
LINE
  8
_1-1_
  6
CONTINUOUS
 62
    7
 10
368.1057812900616
 20
536.85073881996186
 11
368.10547508328114
 21
536.85108877056814
  0
LINE
  8
_1-1_
  6
CONTINUOUS
 62
    7
 10
382.82925314884847
 20
536.85170118412907
 11
382.82824704085527
 21
536.85073881996186
  0
LINE
  8
_1-1_
  6
CONTINUOUS
 62
    7
 10
382.86315461383367
 20
536.88175319244499
 11
382.8604862404606
 21
536.87952225732988
  0
LINE
  8
_1-1_
  6
CONTINUOUS
 62
    7
 10
382.89998691514654
 20
536.91066786129045
 11
382.89495637518087
 21
536.90694963609849
  0
LINE
  8
_1-1_
  6
CONTINUOUS
 62
    7
 10
382.94854256177047
 20
536.94400065654031
 11
382.94618039517786
 21
536.94246962263776
  0
LINE
  8
_1-1_
  6
CONTINUOUS
 62
    7
 10
382.98222530762655
 20
536.96434153553139
 11
382.97732599913843
 21
536.96154193068094
  0
LINE
  8
_1-1_
  6
CONTINUOUS
 62
    7
 10
383.02176972613836
 20
536.98586349781874
 11
383.02176972613836
 21
536.98581975399293
  0
LINE
  8
_1-1_
  6
CONTINUOUS
 62
    7
 10
383.14696455554156
 20
537.03909973380189
 11
383.14604593519988
 21
537.03879352702131
  0
LINE
  8
_1-1_
  6
CONTINUOUS
 62
    7
 10
383.19258936583765
 20
537.05371017161485
 11
383.19167074549614
 21
537.05344770866009
  0
LINE
  8
_1-1_
  6
CONTINUOUS
 62
    7
 10
383.24131998776465
 20
537.06683331935096
 11
383.23983269768792
 21
537.06648336874468
  0
LINE
  8
_1-1_
  6
CONTINUOUS
 62
    7
 10
383.29359385958043
 20
537.07833794553301
 11
383.29206282567782
 21
537.07803173875254
  0
LINE
  8
_1-1_
  6
CONTINUOUS
 62
    7
 10
383.5383843086862
 20
537.10252828119349
 11
383.53663455565453
 21
537.10248453736756
  0
LINE
  8
_1-1_
  6
CONTINUOUS
 62
    7
 10
383.5929328594429
 20
537.10230956206442
 11
383.59074566815355
 21
537.10235330589035
  0
LINE
  8
_1-1_
  6
CONTINUOUS
 62
    7
 10
383.65014978357266
 20
537.10020985842664
 11
383.649668601489
 21
537.10025360225245
  0
LINE
  8
_1-1_
  6
CONTINUOUS
 62
    7
 10
383.99388876660907
 20
537.05051687233231
 11
383.99262019566123
 21
537.05077933528707
  0
LINE
  8
_1-1_
  6
CONTINUOUS
 62
    7
 10
384.0552613541887
 20
537.03560022773888
 11
384.05259298081558
 21
537.03625638512574
  0
LINE
  8
_1-1_
  6
CONTINUOUS
 62
    7
 10
384.12035216696012
 20
537.01792772212082
 11
384.11890862070919
 21
537.01832141655291
  0
LINE
  8
_1-1_
  6
CONTINUOUS
 62
    7
 10
384.45739834465115
 20
536.89715101912213
 11
384.44453765986964
 21
536.90261899734548
  0
LINE
  8
_1-1_
  6
CONTINUOUS
 62
    7
 10
384.56028382290287
 20
536.85073881996186
 11
384.54571712891561
 21
536.85760660061044
  0
LINE
  8
_1-1_
  6
CONTINUOUS
 62
    7
 10
414.01921334874203
 20
536.85738788148149
 11
414.00700882134743
 21
536.85165744030337
  0
LINE
  8
_1-1_
  6
CONTINUOUS
 62
    7
 10
414.00700882134743
 20
536.85165744030337
 11
414.00512783683865
 21
536.85073881996186
  0
LINE
  8
_1-1_
  6
CONTINUOUS
 62
    7
 10
414.11702454320249
 20
536.90095673196561
 11
414.10460129667882
 21
536.8956637290454
  0
LINE
  8
_1-1_
  6
CONTINUOUS
 62
    7
 10
414.43136767531001
 20
537.0139470339742
 11
414.43009910436217
 21
537.01359708336793
  0
LINE
  8
_1-1_
  6
CONTINUOUS
 62
    7
 10
414.49540863626254
 20
537.0317507710696
 11
414.49304646966993
 21
537.03113835750855
  0
LINE
  8
_1-1_
  6
CONTINUOUS
 62
    7
 10
414.55389413134014
 20
537.04640495270826
 11
414.55280053569538
 21
537.04614248975361
  0
LINE
  8
_1-1_
  6
CONTINUOUS
 62
    7
 10
414.89120277198583
 20
537.09876631217571
 11
414.8908528213795
 21
537.0987225683499
  0
LINE
  8
_1-1_
  6
CONTINUOUS
 62
    7
 10
414.94894462202495
 20
537.10169714850349
 11
414.94732610047095
 21
537.10160966085186
  0
LINE
  8
_1-1_
  6
CONTINUOUS
 62
    7
 10
415.00314322217548
 20
537.1026595126707
 11
415.00183090740194
 21
537.1026595126707
  0
LINE
  8
_1-1_
  6
CONTINUOUS
 62
    7
 10
415.35532476358895
 20
537.0586969677546
 11
415.35165028222281
 21
537.05970307574762
  0
LINE
  8
_1-1_
  6
CONTINUOUS
 62
    7
 10
415.3973188363446
 20
537.04614248975361
 11
415.3964439598289
 21
537.04640495270826
  0
LINE
  8
_1-1_
  6
CONTINUOUS
 62
    7
 10
415.4770638307549
 20
537.01665915117292
 11
415.47439545738189
 21
537.01775274681768
  0
LINE
  8
_1-1_
  6
CONTINUOUS
 62
    7
 10
415.51980154854903
 20
536.99754309930393
 11
415.51975780472333
 21
536.99754309930393
  0
LINE
  8
_1-1_
  6
CONTINUOUS
 62
    7
 10
415.56153315835019
 20
536.97637108762285
 11
415.56148941452432
 21
536.97637108762285
  0
LINE
  8
_1-1_
  6
CONTINUOUS
 62
    7
 10
415.6020836848549
 20
536.95314311612981
 11
415.60199619720333
 21
536.95318685995562
  0
LINE
  8
_1-1_
  6
CONTINUOUS
 62
    7
 10
415.64123440893468
 20
536.9278591848248
 11
415.6411906651087
 21
536.92790292865061
  0
LINE
  8
_1-1_
  6
CONTINUOUS
 62
    7
 10
415.68226611752311
 20
536.8978946641605
 11
415.67876661146016
 21
536.90056303753352
  0
LINE
  8
_1-1_
  6
CONTINUOUS
 62
    7
 10
415.71358669678671
 20
536.87208580694596
 11
415.71139950549735
 21
536.8740105352806
  0
LINE
  8
_1-1_
  6
CONTINUOUS
 62
    7
 10
430.45998032028604
 20
536.85108877056814
 11
430.45963036967976
 21
536.85073881996186
  0
LINE
  8
_1-1_
  6
CONTINUOUS
 62
    7
 10
430.7275175588012
 20
668.8130005354127
 11
430.7275613026269
 21
668.81295679158688
  0
LINE
  8
_1-1_
  6
CONTINUOUS
 62
    7
 10
430.45963036967976
 20
669.06487748429583
 11
430.45998032028604
 21
669.06452753368956
  0
LINE
  8
_1-1_
  6
CONTINUOUS
 62
    7
 10
415.73615851089301
 20
669.06391512012851
 11
415.73720836271178
 21
669.06487748429583
  0
LINE
  8
_1-1_
  6
CONTINUOUS
 62
    7
 10
415.7022570459078
 20
669.03386311181271
 11
415.70492541928093
 21
669.0360940469277
  0
LINE
  8
_1-1_
  6
CONTINUOUS
 62
    7
 10
415.66542474459493
 20
669.00494844296713
 11
415.67045528456049
 21
669.00866666815909
  0
LINE
  8
_1-1_
  6
CONTINUOUS
 62
    7
 10
415.61686909797106
 20
668.97161564771739
 11
415.61927500838931
 21
668.97314668161982
  0
LINE
  8
_1-1_
  6
CONTINUOUS
 62
    7
 10
415.58318635211492
 20
668.95123102490049
 11
415.58808566060293
 21
668.95407437357665
  0
LINE
  8
_1-1_
  6
CONTINUOUS
 62
    7
 10
415.54364193360311
 20
668.92975280643884
 11
415.54364193360311
 21
668.92979655026465
  0
LINE
  8
_1-1_
  6
CONTINUOUS
 62
    7
 10
415.41849084802578
 20
668.87651657045581
 11
415.41936572454148
 21
668.87682277723627
  0
LINE
  8
_1-1_
  6
CONTINUOUS
 62
    7
 10
415.37282229390371
 20
668.86190613264273
 11
415.37374091424539
 21
668.8621685955975
  0
LINE
  8
_1-1_
  6
CONTINUOUS
 62
    7
 10
415.3240916719767
 20
668.84878298490662
 11
415.32557896205361
 21
668.8491329355129
  0
LINE
  8
_1-1_
  6
CONTINUOUS
 62
    7
 10
415.27181780016093
 20
668.83727835872446
 11
415.27334883406354
 21
668.83754082167923
  0
LINE
  8
_1-1_
  6
CONTINUOUS
 62
    7
 10
415.02707109488114
 20
668.81308802306421
 11
415.02877710408683
 21
668.81308802306421
  0
LINE
  8
_1-1_
  6
CONTINUOUS
 62
    7
 10
414.97247880029863
 20
668.81326299836724
 11
414.97466599158798
 21
668.81321925454154
  0
LINE
  8
_1-1_
  6
CONTINUOUS
 62
    7
 10
414.91526187616887
 20
668.81540644583094
 11
414.91574305825253
 21
668.81536270200513
  0
LINE
  8
_1-1_
  6
CONTINUOUS
 62
    7
 10
414.57152289313228
 20
668.86509943192527
 11
414.57279146408013
 21
668.86479322514469
  0
LINE
  8
_1-1_
  6
CONTINUOUS
 62
    7
 10
414.51015030555283
 20
668.8800160765187
 11
414.5128624227516
 21
668.87935991913196
  0
LINE
  8
_1-1_
  6
CONTINUOUS
 62
    7
 10
414.44510323660711
 20
668.89768858213688
 11
414.44650303903234
 21
668.89729488770467
  0
LINE
  8
_1-1_
  6
CONTINUOUS
 62
    7
 10
414.10801331509037
 20
669.01846528513545
 11
414.12087399987172
 21
669.0129973069121
  0
LINE
  8
_1-1_
  6
CONTINUOUS
 62
    7
 10
414.00512783683865
 20
669.06487748429583
 11
414.01969453082586
 21
669.05796595982133
  0
LINE
  8
_1-1_
  6
CONTINUOUS
 62
    7
 10
384.54619831099933
 20
669.05822842277621
 11
384.55840283839393
 21
669.06395886395433
  0
LINE
  8
_1-1_
  6
CONTINUOUS
 62
    7
 10
384.55840283839393
 20
669.06395886395433
 11
384.56028382290287
 21
669.06487748429583
  0
LINE
  8
_1-1_
  6
CONTINUOUS
 62
    7
 10
384.44843086036474
 20
669.01461582846628
 11
384.46081036306254
 21
669.01990883138649
  0
LINE
  8
_1-1_
  6
CONTINUOUS
 62
    7
 10
384.13408772825733
 20
668.90166927028349
 11
384.13531255537947
 21
668.90201922088977
  0
LINE
  8
_1-1_
  6
CONTINUOUS
 62
    7
 10
384.0700467673048
 20
668.88386553318799
 11
384.07236519007142
 21
668.88447794674903
  0
LINE
  8
_1-1_
  6
CONTINUOUS
 62
    7
 10
384.01151752840133
 20
668.86921135154921
 11
384.01261112404597
 21
668.86947381450398
  0
LINE
  8
_1-1_
  6
CONTINUOUS
 62
    7
 10
383.6742088877557
 20
668.81684999208187
 11
383.67455883836186
 21
668.8168937359078
  0
LINE
  8
_1-1_
  6
CONTINUOUS
 62
    7
 10
383.6164670377164
 20
668.81391915575421
 11
383.61808555927053
 21
668.81400664340572
  0
LINE
  8
_1-1_
  6
CONTINUOUS
 62
    7
 10
383.56226843756588
 20
668.81291304776096
 11
383.56358075233959
 21
668.81295679158688
  0
LINE
  8
_1-1_
  6
CONTINUOUS
 62
    7
 10
383.21008689615257
 20
668.8569193365031
 11
383.21376137751872
 21
668.85591322850996
  0
LINE
  8
_1-1_
  6
CONTINUOUS
 62
    7
 10
383.16813656722246
 20
668.86947381450398
 11
383.16901144373833
 21
668.86921135154921
  0
LINE
  8
_1-1_
  6
CONTINUOUS
 62
    7
 10
383.08839157281227
 20
668.89895715308455
 11
383.09101620235964
 21
668.8978635574399
  0
LINE
  8
_1-1_
  6
CONTINUOUS
 62
    7
 10
383.04561011119233
 20
668.91807320495354
 11
383.04565385501814
 21
668.91807320495354
  0
LINE
  8
_1-1_
  6
CONTINUOUS
 62
    7
 10
383.00387850139134
 20
668.93924521663462
 11
383.00392224521715
 21
668.93920147280892
  0
LINE
  8
_1-1_
  6
CONTINUOUS
 62
    7
 10
382.96337171871232
 20
668.96247318812766
 11
382.96341546253814
 21
668.96242944430196
  0
LINE
  8
_1-1_
  6
CONTINUOUS
 62
    7
 10
382.92417725080696
 20
668.98775711943267
 11
382.92426473845836
 21
668.98771337560697
  0
LINE
  8
_1-1_
  6
CONTINUOUS
 62
    7
 10
382.88314554221841
 20
669.01772164009708
 11
382.88664504828148
 21
669.01505326672407
  0
LINE
  8
_1-1_
  6
CONTINUOUS
 62
    7
 10
382.85182496295477
 20
669.04353049731162
 11
382.854012154244
 21
669.04160576897698
  0
LINE
  8
_1-1_
  6
CONTINUOUS
 62
    7
 10
339.28271201586625
 20
543.96816548233323
 11
339.28271201586625
 21
663.96815311034197
  0
LINE
  8
_1-1_
  6
CONTINUOUS
 62
    7
 10
459.28269964387511
 20
543.96816548233323
 11
339.28271201586625
 21
543.96816548233323
  0
LINE
  8
_1-1_
  6
CONTINUOUS
 62
    7
 10
459.28269964387511
 20
663.96815311034197
 11
459.28269964387511
 21
543.96816548233323
  0
LINE
  8
_1-1_
  6
CONTINUOUS
 62
    7
 10
339.28271201586625
 20
663.96815311034197
 11
459.28269964387511
 21
663.96815311034197
  0
LINE
  8
_1-1_
  6
CONTINUOUS
 62
    7
 10
357.28270578568498
 20
591.96817803106705
 11
357.28270578568498
 21
615.96814056160827
  0
LINE
  8
_1-1_
  6
CONTINUOUS
 62
    7
 10
441.28272774596923
 20
591.96817803106705
 11
357.28270578568498
 21
591.96817803106705
  0
LINE
  8
_1-1_
  6
CONTINUOUS
 62
    7
 10
441.28272774596923
 20
615.96814056160827
 11
441.28272774596923
 21
591.96817803106705
  0
LINE
  8
_1-1_
  6
CONTINUOUS
 62
    7
 10
357.28270578568498
 20
615.96814056160827
 11
441.28272774596923
 21
615.96814056160827
  0
LINE
  8
_1-1_
  6
CONTINUOUS
 62
    7
 10
847.02210974969444
 20
668.81295679158688
 11
851.16701221834273
 21
672.95781551640925
  0
LINE
  8
_1-1_
  6
CONTINUOUS
 62
    7
 10
847.02210974969444
 20
663.35867038564788
 11
847.02210974969444
 21
668.81295679158688
  0
LINE
  8
_1-1_
  6
CONTINUOUS
 62
    7
 10
847.02210974969444
 20
543.96816548233323
 11
847.02210974969444
 21
537.1026595126707
  0
LINE
  8
_1-1_
  6
CONTINUOUS
 62
    7
 10
847.2900844264675
 20
663.35867038564788
 11
847.2900844264675
 21
669.06487748429583
  0
LINE
  8
_1-1_
  6
CONTINUOUS
 62
    7
 10
847.2900844264675
 20
543.96816548233323
 11
847.2900844264675
 21
536.85073881996186
  0
LINE
  8
_1-1_
  6
CONTINUOUS
 62
    7
 10
862.01250643343531
 20
663.35867038564788
 11
862.01250643343531
 21
669.06487748429583
  0
LINE
  8
_1-1_
  6
CONTINUOUS
 62
    7
 10
862.01250643343531
 20
543.96816548233323
 11
862.01250643343531
 21
536.85073881996186
  0
LINE
  8
_1-1_
  6
CONTINUOUS
 62
    7
 10
863.74458695930855
 20
663.35867038564788
 11
863.74458695930855
 21
669.06487748429583
  0
LINE
  8
_1-1_
  6
CONTINUOUS
 62
    7
 10
863.74458695930855
 20
543.96816548233323
 11
863.74458695930855
 21
536.85073881996186
  0
LINE
  8
_1-1_
  6
CONTINUOUS
 62
    7
 10
851.16701221834273
 20
672.95781551640925
 11
905.76700571421031
 21
672.95781551640925
  0
LINE
  8
_1-1_
  6
CONTINUOUS
 62
    7
 10
893.18943097324438
 20
663.35867038564788
 11
893.18943097324438
 21
669.06487748429583
  0
LINE
  8
_1-1_
  6
CONTINUOUS
 62
    7
 10
893.18943097324438
 20
543.96816548233323
 11
893.18943097324438
 21
536.85073881996186
  0
LINE
  8
_1-1_
  6
CONTINUOUS
 62
    7
 10
894.92151149911763
 20
663.35867038564788
 11
894.92151149911763
 21
669.06487748429583
  0
LINE
  8
_1-1_
  6
CONTINUOUS
 62
    7
 10
894.92151149911763
 20
543.96816548233323
 11
894.92151149911763
 21
536.85073881996186
  0
LINE
  8
_1-1_
  6
CONTINUOUS
 62
    7
 10
909.64393350608566
 20
663.35867038564788
 11
909.64393350608566
 21
669.06487748429583
  0
LINE
  8
_1-1_
  6
CONTINUOUS
 62
    7
 10
909.64393350608566
 20
543.96816548233323
 11
909.64393350608566
 21
536.85073881996186
  0
LINE
  8
_1-1_
  6
CONTINUOUS
 62
    7
 10
909.91182069520687
 20
663.35867038564788
 11
909.91182069520687
 21
668.81295679158688
  0
LINE
  8
_1-1_
  6
CONTINUOUS
 62
    7
 10
909.91182069520687
 20
543.96816548233323
 11
909.91182069520687
 21
537.1026595126707
  0
LINE
  8
_1-1_
  6
CONTINUOUS
 62
    7
 10
909.65189488237888
 20
669.07288260441487
 11
905.76700571421031
 21
672.95781551640925
  0
LINE
  8
_1-1_
  6
CONTINUOUS
 62
    7
 10
905.76700571421031
 20
532.95780078784833
 11
909.65189488237888
 21
536.84273369984271
  0
LINE
  8
_1-1_
  6
CONTINUOUS
 62
    7
 10
851.16701221834273
 20
532.95780078784833
 11
905.76700571421031
 21
532.95780078784833
  0
LINE
  8
_1-1_
  6
CONTINUOUS
 62
    7
 10
851.16701221834273
 20
532.95780078784833
 11
847.02210974969444
 21
537.1026595126707
  0
LINE
  8
_1-1_
  6
CONTINUOUS
 62
    7
 10
898.33615454007304
 20
671.64764419025437
 11
898.3438534534115
 21
671.65188734135563
  0
LINE
  8
_1-1_
  6
CONTINUOUS
 62
    7
 10
898.31681976907487
 20
671.63701444058802
 11
898.33615454007304
 21
671.64764419025437
  0
LINE
  8
_1-1_
  6
CONTINUOUS
 62
    7
 10
898.09862556604799
 20
671.51304443830679
 11
898.12522181212671
 21
671.52852975263556
  0
LINE
  8
_1-1_
  6
CONTINUOUS
 62
    7
 10
897.80414213084794
 20
671.33614440682311
 11
897.82662645730272
 21
671.3500111995977
  0
LINE
  8
_1-1_
  6
CONTINUOUS
 62
    7
 10
897.59557156949427
 20
671.20421302824866
 11
897.6252298833781
 21
671.22332908011776
  0
LINE
  8
_1-1_
  6
CONTINUOUS
 62
    7
 10
897.1122897821964
 20
670.8779278317013
 11
897.12786258417668
 21
670.888863788148
  0
LINE
  8
_1-1_
  6
CONTINUOUS
 62
    7
 10
896.89934483826391
 20
670.72530562352949
 11
896.91386778842525
 21
670.73589162936992
  0
LINE
  8
_1-1_
  6
CONTINUOUS
 62
    7
 10
896.5654044722038
 20
670.475353402981
 11
896.56627934871949
 21
670.47600956036774
  0
LINE
  8
_1-1_
  6
CONTINUOUS
 62
    7
 10
896.35814622562361
 20
670.31393868582586
 11
896.39944039716681
 21
670.34639660456014
  0
LINE
  8
_1-1_
  6
CONTINUOUS
 62
    7
 10
895.13253171471547
 20
669.26194341946757
 11
895.16149012738663
 21
669.28871464084932
  0
LINE
  8
_1-1_
  6
CONTINUOUS
 62
    7
 10
909.63054789539467
 20
669.07747570612264
 11
909.64393350608566
 21
669.06487748429583
  0
LINE
  8
_1-1_
  6
CONTINUOUS
 62
    7
 10
909.21786864291744
 20
669.45800324664606
 11
909.22478016739183
 21
669.45179162338434
  0
LINE
  8
_1-1_
  6
CONTINUOUS
 62
    7
 10
908.72627552871995
 20
669.88839874856717
 11
908.78926663785364
 21
669.83455009902298
  0
LINE
  8
_1-1_
  6
CONTINUOUS
 62
    7
 10
908.38463624932137
 20
670.17190248349448
 11
908.38629851470114
 21
670.17059016872099
  0
LINE
  8
_1-1_
  6
CONTINUOUS
 62
    7
 10
907.58377428680774
 20
670.78497220190332
 11
907.69190902415392
 21
670.70649577844097
  0
LINE
  8
_1-1_
  6
CONTINUOUS
 62
    7
 10
906.60015062015486
 20
671.43421806423817
 11
906.6533431123122
 21
671.40232881523934
  0
LINE
  8
_1-1_
  6
CONTINUOUS
 62
    7
 10
905.93463205462717
 20
671.80446580570174
 11
905.94994239365269
 21
671.79659191706014
  0
LINE
  8
_1-1_
  6
CONTINUOUS
 62
    7
 10
905.63901127995666
 20
671.95043895235381
 11
905.68153027862195
 21
671.93009807336284
  0
LINE
  8
_1-1_
  6
CONTINUOUS
 62
    7
 10
905.21767074997354
 20
672.13840617176186
 11
905.29553475987495
 21
672.10533583946676
  0
LINE
  8
_1-1_
  6
CONTINUOUS
 62
    7
 10
904.604557287739
 20
672.36876115835776
 11
904.60473226304214
 21
672.36867367070613
  0
LINE
  8
_1-1_
  6
CONTINUOUS
 62
    7
 10
904.28513987184022
 20
672.46788466759176
 11
904.292401346921
 21
672.46582870777968
  0
LINE
  8
_1-1_
  6
CONTINUOUS
 62
    7
 10
903.63309440465503
 20
672.62518746512274
 11
903.6794628599896
 21
672.61613249318475
  0
LINE
  8
_1-1_
  6
CONTINUOUS
 62
    7
 10
902.79653748029898
 20
672.73839648626017
 11
902.82820801016896
 21
672.7358593443646
  0
LINE
  8
_1-1_
  6
CONTINUOUS
 62
    7
 10
902.09243686042691
 20
672.75528160301405
 11
902.11150916847021
 21
672.75567529744626
  0
LINE
  8
_1-1_
  6
CONTINUOUS
 62
    7
 10
900.48301402206118
 20
672.52343932634153
 11
900.58502462379715
 21
672.54916069590433
  0
LINE
  8
_1-1_
  6
CONTINUOUS
 62
    7
 10
899.85668992443891
 20
672.33324117181837
 11
899.85686489974205
 21
672.33328491564419
  0
LINE
  8
_1-1_
  6
CONTINUOUS
 62
    7
 10
898.93964436063425
 20
671.95673806326727
 11
898.94751824927596
 21
671.96054377611074
  0
LINE
  8
_1-1_
  6
CONTINUOUS
 62
    7
 10
898.3438534534115
 20
671.65188734135563
 11
898.38672240268306
 21
671.67546526345507
  0
LINE
  8
_1-1_
  6
CONTINUOUS
 62
    7
 10
893.15154882011257
 20
669.08272496521704
 11
893.18943097324438
 21
669.06487748429583
  0
LINE
  8
_1-1_
  6
CONTINUOUS
 62
    7
 10
891.98962531955078
 20
669.6129001337589
 11
892.00887260289721
 21
669.60441383155614
  0
LINE
  8
_1-1_
  6
CONTINUOUS
 62
    7
 10
890.71746737800504
 20
670.15265520014805
 11
890.79498143730007
 21
670.12098467027818
  0
LINE
  8
_1-1_
  6
CONTINUOUS
 62
    7
 10
889.55633126630744
 20
670.60605995443336
 11
889.58607706784278
 21
670.59494902268341
  0
LINE
  8
_1-1_
  6
CONTINUOUS
 62
    7
 10
887.2208484075245
 20
671.39839187091843
 11
887.3778012544492
 21
671.35014243107503
  0
LINE
  8
_1-1_
  6
CONTINUOUS
 62
    7
 10
886.29382925144023
 20
671.66584162178185
 11
886.31150175705841
 21
671.66107354477106
  0
LINE
  8
_1-1_
  6
CONTINUOUS
 62
    7
 10
884.41371961910295
 20
672.12208972474309
 11
884.52622873902772
 21
672.09829308351482
  0
LINE
  8
_1-1_
  6
CONTINUOUS
 62
    7
 10
883.23639829186391
 20
672.34728293989622
 11
883.29440260485785
 21
672.33722185996498
  0
LINE
  8
_1-1_
  6
CONTINUOUS
 62
    7
 10
882.21795453988432
 20
672.50318593500197
 11
882.22609089148079
 21
672.50209233935732
  0
LINE
  8
_1-1_
  6
CONTINUOUS
 62
    7
 10
880.13154902513418
 20
672.70733836995123
 11
880.21658702246464
 21
672.70208911085672
  0
LINE
  8
_1-1_
  6
CONTINUOUS
 62
    7
 10
876.98488066095183
 20
672.71774940048863
 11
877.01952577097529
 21
672.71963038499746
  0
LINE
  8
_1-1_
  6
CONTINUOUS
 62
    7
 10
875.87938669565563
 20
672.63625465304688
 11
875.88069901042911
 21
672.6363421406985
  0
LINE
  8
_1-1_
  6
CONTINUOUS
 62
    7
 10
874.76846849596177
 20
672.5102286909538
 11
874.77669233520965
 21
672.51127854277252
  0
LINE
  8
_1-1_
  6
CONTINUOUS
 62
    7
 10
873.64827660520086
 20
672.33879663769346
 11
873.65518812967537
 21
672.33997772098962
  0
LINE
  8
_1-1_
  6
CONTINUOUS
 62
    7
 10
871.39975647208303
 20
671.86421987172719
 11
871.41716651474644
 21
671.86855051048019
  0
LINE
  8
_1-1_
  6
CONTINUOUS
 62
    7
 10
870.24588183546609
 20
671.55530097401743
 11
870.26364182873579
 21
671.5603752578088
  0
LINE
  8
_1-1_
  6
CONTINUOUS
 62
    7
 10
867.91214872971466
 20
670.80181357483139
 11
867.93559542033665
 21
670.81021238938263
  0
LINE
  8
_1-1_
  6
CONTINUOUS
 62
    7
 10
866.54961604409232
 20
670.28694874531516
 11
866.72879075451704
 21
670.35746379248417
  0
LINE
  8
_1-1_
  6
CONTINUOUS
 62
    7
 10
865.58016537699461
 20
669.88839874856717
 11
865.6188349189905
 21
669.90493391471477
  0
LINE
  8
_1-1_
  6
CONTINUOUS
 62
    7
 10
863.74458695930855
 20
669.06487748429583
 11
863.89620305948722
 21
669.13631115180635
  0
LINE
  8
_1-1_
  6
CONTINUOUS
 62
    7
 10
861.99789599562234
 20
669.0786130455931
 11
862.01250643343531
 21
669.06487748429583
  0
LINE
  8
_1-1_
  6
CONTINUOUS
 62
    7
 10
861.54794700357445
 20
669.49264835666963
 11
861.55547094160977
 21
669.4859118074985
  0
LINE
  8
_1-1_
  6
CONTINUOUS
 62
    7
 10
861.01059784760332
 20
669.95956995312315
 11
861.07953811704419
 21
669.90121568952293
  0
LINE
  8
_1-1_
  6
CONTINUOUS
 62
    7
 10
860.62906419908677
 20
670.27168215011534
 11
860.63816291485057
 21
670.26446441886037
  0
LINE
  8
_1-1_
  6
CONTINUOUS
 62
    7
 10
860.25741665519809
 20
670.56026016883402
 11
860.26721527217433
 21
670.55273623079859
  0
LINE
  8
_1-1_
  6
CONTINUOUS
 62
    7
 10
859.89731748131703
 20
670.82442913276338
 11
859.90807846246071
 21
670.81681770707644
  0
LINE
  8
_1-1_
  6
CONTINUOUS
 62
    7
 10
858.49926480915553
 20
671.70140535214682
 11
858.5195619443208
 21
671.69055688335163
  0
LINE
  8
_1-1_
  6
CONTINUOUS
 62
    7
 10
857.80548773216924
 20
672.04348206980342
 11
857.85273106401951
 21
672.02226631429664
  0
LINE
  8
_1-1_
  6
CONTINUOUS
 62
    7
 10
857.31476949448745
 20
672.2468471158885
 11
857.37706070240858
 21
672.22265678022825
  0
LINE
  8
_1-1_
  6
CONTINUOUS
 62
    7
 10
856.92011269823456
 20
672.3859962257178
 11
856.97697967175816
 21
672.36744884358404
  0
LINE
  8
_1-1_
  6
CONTINUOUS
 62
    7
 10
856.42405771380686
 20
672.53026336316441
 11
856.46132745337752
 21
672.52059597766538
  0
LINE
  8
_1-1_
  6
CONTINUOUS
 62
    7
 10
856.06588326826056
 20
672.6124142679929
 11
856.1164511308707
 21
672.60200323745551
  0
LINE
  8
_1-1_
  6
CONTINUOUS
 62
    7
 10
855.63999338039548
 20
672.68634133357341
 11
855.65302904048008
 21
672.68446034906447
  0
LINE
  8
_1-1_
  6
CONTINUOUS
 62
    7
 10
855.16266075340468
 20
672.73861520538912
 11
855.19739335107988
 21
672.73581560053867
  0
LINE
  8
_1-1_
  6
CONTINUOUS
 62
    7
 10
854.73178406939996
 20
672.75733756282602
 11
854.78742621580136
 21
672.75650643013614
  0
LINE
  8
_1-1_
  6
CONTINUOUS
 62
    7
 10
854.44657432526697
 20
672.75471293327882
 11
854.46739638634176
 21
672.75532534683987
  0
LINE
  8
_1-1_
  6
CONTINUOUS
 62
    7
 10
853.94666988416986
 20
672.72151136950629
 11
854.00213705526812
 21
672.72680437242661
  0
LINE
  8
_1-1_
  6
CONTINUOUS
 62
    7
 10
852.90600426869037
 20
672.53717488763868
 11
852.95980917440875
 21
672.550691729807
  0
LINE
  8
_1-1_
  6
CONTINUOUS
 62
    7
 10
852.44678158557554
 20
672.40668705531516
 11
852.44695656087856
 21
672.40673079914109
  0
LINE
  8
_1-1_
  6
CONTINUOUS
 62
    7
 10
852.16332159447393
 20
672.31150049040207
 11
852.21983861739102
 21
672.3311852120064
  0
LINE
  8
_1-1_
  6
CONTINUOUS
 62
    7
 10
851.11968139884084
 20
671.86526972354602
 11
851.17287389099829
 21
671.89169099432161
  0
LINE
  8
_1-1_
  6
CONTINUOUS
 62
    7
 10
850.64094896942493
 20
671.6121679475408
 11
850.6412989200312
 21
671.61243041049556
  0
LINE
  8
_1-1_
  6
CONTINUOUS
 62
    7
 10
850.34707794778581
 20
671.44235441583464
 11
850.40551969903777
 21
671.47686829438067
  0
LINE
  8
_1-1_
  6
CONTINUOUS
 62
    7
 10
849.27342948766284
 20
670.7293300555018
 11
849.32775931929064
 21
670.76887447401361
  0
LINE
  8
_1-1_
  6
CONTINUOUS
 62
    7
 10
848.76258909011892
 20
670.34210970963284
 11
848.76311401602834
 21
670.34259089171655
  0
LINE
  8
_1-1_
  6
CONTINUOUS
 62
    7
 10
848.44920832217883
 20
670.09014527309819
 11
848.51149953009997
 21
670.14097559866298
  0
LINE
  8
_1-1_
  6
CONTINUOUS
 62
    7
 10
847.2900844264675
 20
669.06487748429583
 11
847.36313661553231
 21
669.13381775373648
  0
LINE
  8
_1-1_
  6
CONTINUOUS
 62
    7
 10
893.15154882011257
 20
536.83289133904066
 11
893.18943097324438
 21
536.85073881996186
  0
LINE
  8
_1-1_
  6
CONTINUOUS
 62
    7
 10
891.98962531955078
 20
536.30271617049868
 11
892.00887260289721
 21
536.31120247270144
  0
LINE
  8
_1-1_
  6
CONTINUOUS
 62
    7
 10
890.71746737800504
 20
535.76291736028361
 11
890.79498143730007
 21
535.79463163397941
  0
LINE
  8
_1-1_
  6
CONTINUOUS
 62
    7
 10
889.55633126630744
 20
535.30955634982422
 11
889.58607706784278
 21
535.32066728157429
  0
LINE
  8
_1-1_
  6
CONTINUOUS
 62
    7
 10
887.2208484075245
 20
534.51718068951345
 11
887.3778012544492
 21
534.56547387318255
  0
LINE
  8
_1-1_
  6
CONTINUOUS
 62
    7
 10
886.29382925144023
 20
534.24977468247573
 11
886.31150175705841
 21
534.25454275948664
  0
LINE
  8
_1-1_
  6
CONTINUOUS
 62
    7
 10
884.41371961910295
 20
533.79352657951449
 11
884.52622873902772
 21
533.81732322074276
  0
LINE
  8
_1-1_
  6
CONTINUOUS
 62
    7
 10
883.23639829186391
 20
533.56833336436148
 11
883.29440260485785
 21
533.57839444429248
  0
LINE
  8
_1-1_
  6
CONTINUOUS
 62
    7
 10
882.21795453988432
 20
533.41243036925562
 11
882.22609089148079
 21
533.41352396490026
  0
LINE
  8
_1-1_
  6
CONTINUOUS
 62
    7
 10
880.13154902513418
 20
533.20827793430635
 11
880.21658702246464
 21
533.21352719340086
  0
LINE
  8
_1-1_
  6
CONTINUOUS
 62
    7
 10
876.98488066095183
 20
533.19786690376895
 11
877.01952577097529
 21
533.19598591926012
  0
LINE
  8
_1-1_
  6
CONTINUOUS
 62
    7
 10
875.87938669565563
 20
533.27936165121071
 11
875.88069901042911
 21
533.27923041973327
  0
LINE
  8
_1-1_
  6
CONTINUOUS
 62
    7
 10
874.76846849596177
 20
533.4053876133039
 11
874.77669233520965
 21
533.40429401765914
  0
LINE
  8
_1-1_
  6
CONTINUOUS
 62
    7
 10
873.64827660520086
 20
533.57681966656423
 11
873.65518812967537
 21
533.57563858326796
  0
LINE
  8
_1-1_
  6
CONTINUOUS
 62
    7
 10
871.39975647208303
 20
534.0513964325304
 11
871.41716651474644
 21
534.04706579377751
  0
LINE
  8
_1-1_
  6
CONTINUOUS
 62
    7
 10
870.24588183546609
 20
534.36031533024016
 11
870.26364182873579
 21
534.3552410464489
  0
LINE
  8
_1-1_
  6
CONTINUOUS
 62
    7
 10
867.91214872971466
 20
535.1138027294262
 11
867.93559542033665
 21
535.10540391487507
  0
LINE
  8
_1-1_
  6
CONTINUOUS
 62
    7
 10
866.54961604409232
 20
535.62866755894242
 11
866.72879075451704
 21
535.55815251177341
  0
LINE
  8
_1-1_
  6
CONTINUOUS
 62
    7
 10
865.58016537699461
 20
536.02721755569041
 11
865.6188349189905
 21
536.01068238954281
  0
LINE
  8
_1-1_
  6
CONTINUOUS
 62
    7
 10
863.74458695930855
 20
536.85073881996186
 11
863.89620305948722
 21
536.77930515245112
  0
LINE
  8
_1-1_
  6
CONTINUOUS
 62
    7
 10
898.33965404613593
 20
534.26600364184287
 11
898.34744044712602
 21
534.26176049074149
  0
LINE
  8
_1-1_
  6
CONTINUOUS
 62
    7
 10
898.3204067627895
 20
534.27667713533492
 11
898.33965404613593
 21
534.26600364184287
  0
LINE
  8
_1-1_
  6
CONTINUOUS
 62
    7
 10
898.10160014620146
 20
534.40086585674499
 11
898.12828387993181
 21
534.38533679859052
  0
LINE
  8
_1-1_
  6
CONTINUOUS
 62
    7
 10
897.80632932213734
 20
534.57811583883517
 11
897.82890113624364
 21
534.56420530223477
  0
LINE
  8
_1-1_
  6
CONTINUOUS
 62
    7
 10
897.59732132252577
 20
534.71030968036428
 11
897.62706712406111
 21
534.69114988466936
  0
LINE
  8
_1-1_
  6
CONTINUOUS
 62
    7
 10
897.11272722045419
 20
535.03738226577582
 11
897.12847499773761
 21
535.02635882167738
  0
LINE
  8
_1-1_
  6
CONTINUOUS
 62
    7
 10
896.89943232591543
 20
535.19031068072809
 11
896.91404276372839
 21
535.17963718723604
  0
LINE
  8
_1-1_
  6
CONTINUOUS
 62
    7
 10
896.5654044722038
 20
535.4402629012767
 11
896.56627934871949
 21
535.43960674388984
  0
LINE
  8
_1-1_
  6
CONTINUOUS
 62
    7
 10
896.35814622562361
 20
535.60167761843172
 11
896.39944039716681
 21
535.56917595587174
  0
LINE
  8
_1-1_
  6
CONTINUOUS
 62
    7
 10
895.13253171471547
 20
536.65367288479013
 11
895.16149012738663
 21
536.62690166340826
  0
LINE
  8
_1-1_
  6
CONTINUOUS
 62
    7
 10
909.63054789539467
 20
536.83814059813506
 11
909.64393350608566
 21
536.85073881996186
  0
LINE
  8
_1-1_
  6
CONTINUOUS
 62
    7
 10
909.21786864291744
 20
536.45761305761152
 11
909.22478016739183
 21
536.46382468087336
  0
LINE
  8
_1-1_
  6
CONTINUOUS
 62
    7
 10
908.72627552871995
 20
536.02717381186471
 11
908.78926663785364
 21
536.08106620523461
  0
LINE
  8
_1-1_
  6
CONTINUOUS
 62
    7
 10
908.38463624932137
 20
535.74371382076311
 11
908.38629851470114
 21
535.7450261355367
  0
LINE
  8
_1-1_
  6
CONTINUOUS
 62
    7
 10
907.58377428680774
 20
535.13064410235427
 11
907.69190902415392
 21
535.20912052581662
  0
LINE
  8
_1-1_
  6
CONTINUOUS
 62
    7
 10
906.60015062015486
 20
534.48139824001942
 11
906.6533431123122
 21
534.51328748901835
  0
LINE
  8
_1-1_
  6
CONTINUOUS
 62
    7
 10
905.93463205462717
 20
534.11115049855584
 11
905.94994239365269
 21
534.11902438719756
  0
LINE
  8
_1-1_
  6
CONTINUOUS
 62
    7
 10
905.63901127995666
 20
533.96517735190378
 11
905.68153027862195
 21
533.98551823089474
  0
LINE
  8
_1-1_
  6
CONTINUOUS
 62
    7
 10
905.21767074997354
 20
533.77721013249572
 11
905.29553475987495
 21
533.81028046479094
  0
LINE
  8
_1-1_
  6
CONTINUOUS
 62
    7
 10
904.604557287739
 20
533.54685514589983
 11
904.60473226304214
 21
533.54694263355145
  0
LINE
  8
_1-1_
  6
CONTINUOUS
 62
    7
 10
904.28513987184022
 20
533.44773163666594
 11
904.292401346921
 21
533.4497875964779
  0
LINE
  8
_1-1_
  6
CONTINUOUS
 62
    7
 10
903.63309440465503
 20
533.29042883913485
 11
903.6794628599896
 21
533.29948381107283
  0
LINE
  8
_1-1_
  6
CONTINUOUS
 62
    7
 10
902.79653748029898
 20
533.17721981799741
 11
902.82820801016896
 21
533.17975695989298
  0
LINE
  8
_1-1_
  6
CONTINUOUS
 62
    7
 10
902.09243686042691
 20
533.16029095741771
 11
902.11150916847021
 21
533.15989726298562
  0
LINE
  8
_1-1_
  6
CONTINUOUS
 62
    7
 10
900.48301402206118
 20
533.39217697791605
 11
900.58502462379715
 21
533.36645560835314
  0
LINE
  8
_1-1_
  6
CONTINUOUS
 62
    7
 10
900.11609081135748
 20
533.49703092832817
 11
900.16805847639273
 21
533.48084571278696
  0
LINE
  8
_1-1_
  6
CONTINUOUS
 62
    7
 10
899.65126891854186
 20
533.65673963627751
 11
899.70253668236455
 21
533.63784230353747
  0
LINE
  8
_1-1_
  6
CONTINUOUS
 62
    7
 10
898.70517745441452
 20
534.07335583307565
 11
898.75110847149119
 21
534.05021534923424
  0
LINE
  8
_1-1_
  6
CONTINUOUS
 62
    7
 10
847.28973447586111
 20
669.06452753368956
 11
847.2900844264675
 21
669.06487748429583
  0
LINE
  8
_1-1_
  6
CONTINUOUS
 62
    7
 10
861.99789599562234
 20
536.83700325866459
 11
862.01250643343531
 21
536.85073881996186
  0
LINE
  8
_1-1_
  6
CONTINUOUS
 62
    7
 10
861.54794700357445
 20
536.42296794758795
 11
861.55547094160977
 21
536.4297044967592
  0
LINE
  8
_1-1_
  6
CONTINUOUS
 62
    7
 10
861.01059784760332
 20
535.95604635113455
 11
861.07953811704419
 21
536.01440061473477
  0
LINE
  8
_1-1_
  6
CONTINUOUS
 62
    7
 10
860.62906419908677
 20
535.64393415414224
 11
860.63816291485057
 21
535.6511518853971
  0
LINE
  8
_1-1_
  6
CONTINUOUS
 62
    7
 10
860.25741665519809
 20
535.35535613542356
 11
860.26721527217433
 21
535.362880073459
  0
LINE
  8
_1-1_
  6
CONTINUOUS
 62
    7
 10
859.89731748131703
 20
535.09118717149408
 11
859.90807846246071
 21
535.09879859718114
  0
LINE
  8
_1-1_
  6
CONTINUOUS
 62
    7
 10
858.49926480915553
 20
534.21421095211076
 11
858.5195619443208
 21
534.22505942090595
  0
LINE
  8
_1-1_
  6
CONTINUOUS
 62
    7
 10
857.80548773216924
 20
533.87213423445417
 11
857.85273106401951
 21
533.89334998996094
  0
LINE
  8
_1-1_
  6
CONTINUOUS
 62
    7
 10
857.31476949448745
 20
533.66876918836908
 11
857.37706070240858
 21
533.69295952402945
  0
LINE
  8
_1-1_
  6
CONTINUOUS
 62
    7
 10
856.92011269823456
 20
533.52962007853978
 11
856.97697967175816
 21
533.54816746067354
  0
LINE
  8
_1-1_
  6
CONTINUOUS
 62
    7
 10
856.42405771380686
 20
533.38530919726747
 11
856.46132745337752
 21
533.3950203265922
  0
LINE
  8
_1-1_
  6
CONTINUOUS
 62
    7
 10
856.06588326826056
 20
533.30320203626479
 11
856.1164511308707
 21
533.31361306680219
  0
LINE
  8
_1-1_
  6
CONTINUOUS
 62
    7
 10
855.63999338039548
 20
533.22927497068429
 11
855.65302904048008
 21
533.23115595519312
  0
LINE
  8
_1-1_
  6
CONTINUOUS
 62
    7
 10
855.16266075340468
 20
533.17700109886846
 11
855.19739335107988
 21
533.1798007037188
  0
LINE
  8
_1-1_
  6
CONTINUOUS
 62
    7
 10
854.73178406939996
 20
533.15827874143145
 11
854.78742621580136
 21
533.15910987412144
  0
LINE
  8
_1-1_
  6
CONTINUOUS
 62
    7
 10
854.44657432526697
 20
533.16090337097864
 11
854.46739638634176
 21
533.16029095741771
  0
LINE
  8
_1-1_
  6
CONTINUOUS
 62
    7
 10
853.94666988416986
 20
533.19410493475129
 11
854.00213705526812
 21
533.18881193183097
  0
LINE
  8
_1-1_
  6
CONTINUOUS
 62
    7
 10
852.90600426869037
 20
533.3784414166189
 11
852.95980917440875
 21
533.36492457445058
  0
LINE
  8
_1-1_
  6
CONTINUOUS
 62
    7
 10
852.44678158557554
 20
533.50892924894231
 11
852.44695656087856
 21
533.5088855051165
  0
LINE
  8
_1-1_
  6
CONTINUOUS
 62
    7
 10
852.16332159447393
 20
533.60411581385551
 11
852.21983861739102
 21
533.58443109225118
  0
LINE
  8
_1-1_
  6
CONTINUOUS
 62
    7
 10
851.11968139884084
 20
534.05034658071156
 11
851.17287389099829
 21
534.02392530993598
  0
LINE
  8
_1-1_
  6
CONTINUOUS
 62
    7
 10
850.64094896942493
 20
534.30344835671679
 11
850.6412989200312
 21
534.30318589376202
  0
LINE
  8
_1-1_
  6
CONTINUOUS
 62
    7
 10
850.34707794778581
 20
534.47326188842294
 11
850.40551969903777
 21
534.4387480098768
  0
LINE
  8
_1-1_
  6
CONTINUOUS
 62
    7
 10
849.27342948766284
 20
535.18628624875566
 11
849.32775931929064
 21
535.14674183024397
  0
LINE
  8
_1-1_
  6
CONTINUOUS
 62
    7
 10
848.76258909011892
 20
535.57350659462475
 11
848.76311401602834
 21
535.57302541254114
  0
LINE
  8
_1-1_
  6
CONTINUOUS
 62
    7
 10
848.44920832217883
 20
535.82547103115951
 11
848.51149953009997
 21
535.77464070559461
  0
LINE
  8
_1-1_
  6
CONTINUOUS
 62
    7
 10
847.2900844264675
 20
536.85073881996186
 11
847.36313661553231
 21
536.7817985505211
  0
LINE
  8
_1-1_
  6
CONTINUOUS
 62
    7
 10
847.02219723734618
 20
537.102615768845
 11
847.02210974969444
 21
537.1026595126707
  0
LINE
  8
_1-1_
  6
CONTINUOUS
 62
    7
 10
847.2900844264675
 20
536.85073881996186
 11
847.28973447586111
 21
536.85108877056814
  0
LINE
  8
_1-1_
  6
CONTINUOUS
 62
    7
 10
862.01355628525425
 20
536.85170118412907
 11
862.01250643343531
 21
536.85073881996186
  0
LINE
  8
_1-1_
  6
CONTINUOUS
 62
    7
 10
862.04741400641353
 20
536.88175319244499
 11
862.04478937686633
 21
536.87952225732988
  0
LINE
  8
_1-1_
  6
CONTINUOUS
 62
    7
 10
862.08424630772652
 20
536.91066786129045
 11
862.07925951158677
 21
536.90694963609849
  0
LINE
  8
_1-1_
  6
CONTINUOUS
 62
    7
 10
862.13280195435027
 20
536.94400065654031
 11
862.13043978775784
 21
536.94246962263776
  0
LINE
  8
_1-1_
  6
CONTINUOUS
 62
    7
 10
862.16648470020664
 20
536.96434153553139
 11
862.1615853917184
 21
536.96154193068094
  0
LINE
  8
_1-1_
  6
CONTINUOUS
 62
    7
 10
862.20602911871822
 20
536.98586349781874
 11
862.20602911871822
 21
536.98581975399293
  0
LINE
  8
_1-1_
  6
CONTINUOUS
 62
    7
 10
862.33122394812142
 20
537.03909973380189
 11
862.33034907160572
 21
537.03879352702131
  0
LINE
  8
_1-1_
  6
CONTINUOUS
 62
    7
 10
862.37689250224332
 20
537.05371017161485
 11
862.37593013807611
 21
537.05344770866009
  0
LINE
  8
_1-1_
  6
CONTINUOUS
 62
    7
 10
862.42562312417044
 20
537.06683331935096
 11
862.4241358340937
 21
537.06648336874468
  0
LINE
  8
_1-1_
  6
CONTINUOUS
 62
    7
 10
862.47785325216046
 20
537.07833794553301
 11
862.47636596208372
 21
537.07803173875254
  0
LINE
  8
_1-1_
  6
CONTINUOUS
 62
    7
 10
862.72264370126607
 20
537.10252828119349
 11
862.72089394823456
 21
537.10248453736756
  0
LINE
  8
_1-1_
  6
CONTINUOUS
 62
    7
 10
862.77723599584863
 20
537.10230956206442
 11
862.77504880455922
 21
537.10235330589035
  0
LINE
  8
_1-1_
  6
CONTINUOUS
 62
    7
 10
862.83445291997839
 20
537.10020985842664
 11
862.83392799406897
 21
537.10025360225245
  0
LINE
  8
_1-1_
  6
CONTINUOUS
 62
    7
 10
863.17819190301475
 20
537.05051687233231
 11
863.17687958824126
 21
537.05077933528707
  0
LINE
  8
_1-1_
  6
CONTINUOUS
 62
    7
 10
863.23952074676868
 20
537.03560022773888
 11
863.23689611722148
 21
537.03625638512574
  0
LINE
  8
_1-1_
  6
CONTINUOUS
 62
    7
 10
863.30461155954015
 20
537.01792772212082
 11
863.30321175711492
 21
537.01832141655291
  0
LINE
  8
_1-1_
  6
CONTINUOUS
 62
    7
 10
863.64170148105688
 20
536.89715101912213
 11
863.62884079627543
 21
536.90261899734548
  0
LINE
  8
_1-1_
  6
CONTINUOUS
 62
    7
 10
863.74458695930855
 20
536.85073881996186
 11
863.7299765214957
 21
536.85760660061044
  0
LINE
  8
_1-1_
  6
CONTINUOUS
 62
    7
 10
893.20351648514793
 20
536.85738788148149
 11
893.1912682139274
 21
536.85165744030337
  0
LINE
  8
_1-1_
  6
CONTINUOUS
 62
    7
 10
893.1912682139274
 20
536.85165744030337
 11
893.18943097324438
 21
536.85073881996186
  0
LINE
  8
_1-1_
  6
CONTINUOUS
 62
    7
 10
893.30132767960833
 20
536.90095673196561
 11
893.28890443308467
 21
536.8956637290454
  0
LINE
  8
_1-1_
  6
CONTINUOUS
 62
    7
 10
893.61567081171575
 20
537.0139470339742
 11
893.61435849694203
 21
537.01359708336793
  0
LINE
  8
_1-1_
  6
CONTINUOUS
 62
    7
 10
893.67971177266827
 20
537.0317507710696
 11
893.67734960607572
 21
537.03113835750855
  0
LINE
  8
_1-1_
  6
CONTINUOUS
 62
    7
 10
893.73815352392
 20
537.04640495270826
 11
893.73710367210128
 21
537.04614248975361
  0
LINE
  8
_1-1_
  6
CONTINUOUS
 62
    7
 10
894.07550590839162
 20
537.09876631217571
 11
894.07515595778534
 21
537.0987225683499
  0
LINE
  8
_1-1_
  6
CONTINUOUS
 62
    7
 10
894.1332477584308
 20
537.10169714850349
 11
894.13158549305092
 21
537.10160966085186
  0
LINE
  8
_1-1_
  6
CONTINUOUS
 62
    7
 10
894.18740261475546
 20
537.1026595126707
 11
894.18609029998174
 21
537.1026595126707
  0
LINE
  8
_1-1_
  6
CONTINUOUS
 62
    7
 10
894.53962789999468
 20
537.0586969677546
 11
894.53595341862854
 21
537.05970307574762
  0
LINE
  8
_1-1_
  6
CONTINUOUS
 62
    7
 10
894.58162197275044
 20
537.04614248975361
 11
894.58074709623475
 21
537.04640495270826
  0
LINE
  8
_1-1_
  6
CONTINUOUS
 62
    7
 10
894.66132322333488
 20
537.01665915117292
 11
894.65869859378768
 21
537.01775274681768
  0
LINE
  8
_1-1_
  6
CONTINUOUS
 62
    7
 10
894.70410468495493
 20
536.99754309930393
 11
894.7040171973033
 21
536.99754309930393
  0
LINE
  8
_1-1_
  6
CONTINUOUS
 62
    7
 10
894.74583629475592
 20
536.97637108762285
 11
894.74574880710429
 21
536.97637108762285
  0
LINE
  8
_1-1_
  6
CONTINUOUS
 62
    7
 10
894.78634307743494
 20
536.95314311612981
 11
894.78625558978342
 21
536.95318685995562
  0
LINE
  8
_1-1_
  6
CONTINUOUS
 62
    7
 10
894.82553754534035
 20
536.9278591848248
 11
894.82545005768884
 21
536.92790292865061
  0
LINE
  8
_1-1_
  6
CONTINUOUS
 62
    7
 10
894.86656925392879
 20
536.8978946641605
 11
894.86306974786589
 21
536.90056303753352
  0
LINE
  8
_1-1_
  6
CONTINUOUS
 62
    7
 10
894.89788983319261
 20
536.87208580694596
 11
894.8957026419032
 21
536.8740105352806
  0
LINE
  8
_1-1_
  6
CONTINUOUS
 62
    7
 10
909.64428345669194
 20
536.85108877056814
 11
909.64393350608566
 21
536.85073881996186
  0
LINE
  8
_1-1_
  6
CONTINUOUS
 62
    7
 10
909.91182069520687
 20
668.8130005354127
 11
909.91182069520687
 21
668.81295679158688
  0
LINE
  8
_1-1_
  6
CONTINUOUS
 62
    7
 10
909.64393350608566
 20
669.06487748429583
 11
909.64428345669194
 21
669.06452753368956
  0
LINE
  8
_1-1_
  6
CONTINUOUS
 62
    7
 10
894.92046164729868
 20
669.06391512012851
 11
894.92151149911763
 21
669.06487748429583
  0
LINE
  8
_1-1_
  6
CONTINUOUS
 62
    7
 10
894.88651643848789
 20
669.03386311181271
 11
894.8892285556866
 21
669.0360940469277
  0
LINE
  8
_1-1_
  6
CONTINUOUS
 62
    7
 10
894.84968413717502
 20
669.00494844296713
 11
894.85475842096616
 21
669.00866666815909
  0
LINE
  8
_1-1_
  6
CONTINUOUS
 62
    7
 10
894.80112849055104
 20
668.97161564771739
 11
894.80357814479521
 21
668.97314668161982
  0
LINE
  8
_1-1_
  6
CONTINUOUS
 62
    7
 10
894.76744574469478
 20
668.95123102490049
 11
894.77234505318302
 21
668.95407437357665
  0
LINE
  8
_1-1_
  6
CONTINUOUS
 62
    7
 10
894.7279013261832
 20
668.92975280643884
 11
894.7279013261832
 21
668.92979655026465
  0
LINE
  8
_1-1_
  6
CONTINUOUS
 62
    7
 10
894.60279398443151
 20
668.87651657045581
 11
894.60366886094721
 21
668.87682277723627
  0
LINE
  8
_1-1_
  6
CONTINUOUS
 62
    7
 10
894.5571254303095
 20
668.86190613264273
 11
894.55800030682542
 21
668.8621685955975
  0
LINE
  8
_1-1_
  6
CONTINUOUS
 62
    7
 10
894.50839480838249
 20
668.84878298490662
 11
894.50988209845934
 21
668.8491329355129
  0
LINE
  8
_1-1_
  6
CONTINUOUS
 62
    7
 10
894.45607719274096
 20
668.83727835872446
 11
894.45765197046921
 21
668.83754082167923
  0
LINE
  8
_1-1_
  6
CONTINUOUS
 62
    7
 10
894.21137423128687
 20
668.81308802306421
 11
894.21303649666686
 21
668.81308802306421
  0
LINE
  8
_1-1_
  6
CONTINUOUS
 62
    7
 10
894.15678193670431
 20
668.81326299836724
 11
894.15896912799371
 21
668.81321925454154
  0
LINE
  8
_1-1_
  6
CONTINUOUS
 62
    7
 10
894.09956501257454
 20
668.81540644583094
 11
894.10000245083256
 21
668.81536270200513
  0
LINE
  8
_1-1_
  6
CONTINUOUS
 62
    7
 10
893.75582602953818
 20
668.86509943192527
 11
893.75705085666016
 21
668.86479322514469
  0
LINE
  8
_1-1_
  6
CONTINUOUS
 62
    7
 10
893.69440969813286
 20
668.8800160765187
 11
893.69712181533157
 21
668.87935991913196
  0
LINE
  8
_1-1_
  6
CONTINUOUS
 62
    7
 10
893.6294063730129
 20
668.89768858213688
 11
893.63080617543801
 21
668.89729488770467
  0
LINE
  8
_1-1_
  6
CONTINUOUS
 62
    7
 10
893.29231645149605
 20
669.01846528513545
 11
893.30517713627751
 21
669.0129973069121
  0
LINE
  8
_1-1_
  6
CONTINUOUS
 62
    7
 10
893.18943097324438
 20
669.06487748429583
 11
893.20395392340572
 21
669.05796595982133
  0
LINE
  8
_1-1_
  6
CONTINUOUS
 62
    7
 10
863.730501447405
 20
669.05822842277621
 11
863.74266223097391
 21
669.06395886395433
  0
LINE
  8
_1-1_
  6
CONTINUOUS
 62
    7
 10
863.74266223097391
 20
669.06395886395433
 11
863.74458695930855
 21
669.06487748429583
  0
LINE
  8
_1-1_
  6
CONTINUOUS
 62
    7
 10
863.63269025294471
 20
669.01461582846628
 11
863.64511349946827
 21
669.01990883138649
  0
LINE
  8
_1-1_
  6
CONTINUOUS
 62
    7
 10
863.3183471208373
 20
668.90166927028349
 11
863.31957194795928
 21
668.90201922088977
  0
LINE
  8
_1-1_
  6
CONTINUOUS
 62
    7
 10
863.25430615988466
 20
668.88386553318799
 11
863.25666832647721
 21
668.88447794674903
  0
LINE
  8
_1-1_
  6
CONTINUOUS
 62
    7
 10
863.19577692098142
 20
668.86921135154921
 11
863.19691426045188
 21
668.86947381450398
  0
LINE
  8
_1-1_
  6
CONTINUOUS
 62
    7
 10
862.85851202416143
 20
668.81684999208187
 11
862.85886197476771
 21
668.8168937359078
  0
LINE
  8
_1-1_
  6
CONTINUOUS
 62
    7
 10
862.80077017412214
 20
668.81391915575421
 11
862.8023449518505
 21
668.81400664340572
  0
LINE
  8
_1-1_
  6
CONTINUOUS
 62
    7
 10
862.74652783014585
 20
668.81291304776096
 11
862.74784014491956
 21
668.81295679158688
  0
LINE
  8
_1-1_
  6
CONTINUOUS
 62
    7
 10
862.39439003255825
 20
668.8569193365031
 11
862.3980645139244
 21
668.85591322850996
  0
LINE
  8
_1-1_
  6
CONTINUOUS
 62
    7
 10
862.35239595980249
 20
668.86947381450398
 11
862.3532708363183
 21
668.86921135154921
  0
LINE
  8
_1-1_
  6
CONTINUOUS
 62
    7
 10
862.27269470921806
 20
668.89895715308455
 11
862.27531933876537
 21
668.8978635574399
  0
LINE
  8
_1-1_
  6
CONTINUOUS
 62
    7
 10
862.18818163779702
 20
668.93924521663462
 11
862.18818163779702
 21
668.93920147280892
  0
LINE
  8
_1-1_
  6
CONTINUOUS
 62
    7
 10
862.147674855118
 20
668.96247318812766
 11
862.147674855118
 21
668.96242944430196
  0
LINE
  8
_1-1_
  6
CONTINUOUS
 62
    7
 10
862.10848038721269
 20
668.98775711943267
 11
862.10856787486421
 21
668.98771337560697
  0
LINE
  8
_1-1_
  6
CONTINUOUS
 62
    7
 10
862.06744867862415
 20
669.01772164009708
 11
862.07094818468715
 21
669.01505326672407
  0
LINE
  8
_1-1_
  6
CONTINUOUS
 62
    7
 10
862.03612809936044
 20
669.04353049731162
 11
862.03831529064985
 21
669.04160576897698
  0
LINE
  8
_1-1_
  6
CONTINUOUS
 62
    7
 10
818.4670151522721
 20
543.96816548233323
 11
818.4670151522721
 21
663.96815311034197
  0
LINE
  8
_1-1_
  6
CONTINUOUS
 62
    7
 10
938.46700278028095
 20
543.96816548233323
 11
818.4670151522721
 21
543.96816548233323
  0
LINE
  8
_1-1_
  6
CONTINUOUS
 62
    7
 10
938.46700278028095
 20
663.96815311034197
 11
938.46700278028095
 21
543.96816548233323
  0
LINE
  8
_1-1_
  6
CONTINUOUS
 62
    7
 10
818.4670151522721
 20
663.96815311034197
 11
938.46700278028095
 21
663.96815311034197
  0
LINE
  8
_1-1_
  6
CONTINUOUS
 62
    7
 10
836.46698705017798
 20
591.96817803106705
 11
836.46698705017798
 21
615.96814056160827
  0
LINE
  8
_1-1_
  6
CONTINUOUS
 62
    7
 10
920.46703088237507
 20
591.96817803106705
 11
836.46698705017798
 21
591.96817803106705
  0
LINE
  8
_1-1_
  6
CONTINUOUS
 62
    7
 10
920.46703088237507
 20
615.96814056160827
 11
920.46703088237507
 21
591.96817803106705
  0
LINE
  8
_1-1_
  6
CONTINUOUS
 62
    7
 10
836.46698705017798
 20
615.96814056160827
 11
920.46703088237507
 21
615.96814056160827
  0
ARC
  8
_1-0_
  6
CONTINUOUS
 62
    7
 10
1387.9082164985332
 20
634.96376567825837
 40
2.0000000102409525
 50
90
 51
180
  0
ARC
  8
_1-0_
  6
CONTINUOUS
 62
    7
 10
1329.9081903995234
 20
634.96376567825837
 40
2.0000000102409525
 50
0
 51
90
  0
ARC
  8
_1-0_
  6
CONTINUOUS
 62
    7
 10
1387.9082164985332
 20
570.96374894661335
 40
2.0000000102409525
 50
180
 51
270
  0
ARC
  8
_1-0_
  6
CONTINUOUS
 62
    7
 10
1329.9081903995234
 20
570.96374894661335
 40
2.0000000102409525
 50
270
 51
0
  0
CIRCLE
  8
_1-0_
  6
CONTINUOUS
 62
    7
 10
399.11722293691753
 20
1461.6359852087544
 40
26.000001329252616
  0
CIRCLE
  8
_1-0_
  6
CONTINUOUS
 62
    7
 10
399.11722293691753
 20
1461.6359852087544
 40
19.999999760660884
  0
CIRCLE
  8
_1-0_
  6
CONTINUOUS
 62
    7
 10
879.11721719277864
 20
1461.6359852087544
 40
26.000001329252616
  0
CIRCLE
  8
_1-0_
  6
CONTINUOUS
 62
    7
 10
879.11721719277864
 20
1461.6359852087544
 40
19.999999760660884
  0
LINE
  8
_1-0_
  6
CONTINUOUS
 62
    7
 10
663.68131937667658
 20
595.54882889088515
 11
663.68131937667658
 21
595.54882889088515
  0
LINE
  8
_1-0_
  6
CONTINUOUS
 62
    7
 10
663.68131937667658
 20
595.54882889088515
 11
663.31670543671873
 21
595.89598633934122
  0
LINE
  8
_1-0_
  6
CONTINUOUS
 62
    7
 10
663.31670543671873
 20
595.89598633934122
 11
662.23394222690717
 21
596.23259558439611
  0
LINE
  8
_1-0_
  6
CONTINUOUS
 62
    7
 10
662.23394222690717
 20
596.23259558439611
 11
660.46592895946753
 21
596.54842892447118
  0
LINE
  8
_1-0_
  6
CONTINUOUS
 62
    7
 10
660.46592895946753
 20
596.54842892447118
 11
658.06638582287292
 21
596.8338899233479
  0
LINE
  8
_1-0_
  6
CONTINUOUS
 62
    7
 10
658.06638582287292
 20
596.8338899233479
 11
655.10822172110147
 21
597.08030499302549
  0
LINE
  8
_1-0_
  6
CONTINUOUS
 62
    7
 10
655.10822172110147
 20
597.08030499302549
 11
651.68131897348223
 21
597.28018693630383
  0
LINE
  8
_1-0_
  6
CONTINUOUS
 62
    7
 10
651.68131897348223
 20
597.28018693630383
 11
647.88980228590515
 21
597.42746244148157
  0
LINE
  8
_1-0_
  6
CONTINUOUS
 62
    7
 10
647.88980228590515
 20
597.42746244148157
 11
643.84887497432214
 21
597.51765661685886
  0
LINE
  8
_1-0_
  6
CONTINUOUS
 62
    7
 10
643.84887497432214
 20
597.51765661685886
 11
639.68131857028789
 21
597.54802895805733
  0
LINE
  8
_1-0_
  6
CONTINUOUS
 62
    7
 10
639.68131857028789
 20
597.54802895805733
 11
635.51376216625363
 21
597.51765661685886
  0
LINE
  8
_1-0_
  6
CONTINUOUS
 62
    7
 10
635.51376216625363
 20
597.51765661685886
 11
631.47283485467062
 21
597.42746244148157
  0
LINE
  8
_1-0_
  6
CONTINUOUS
 62
    7
 10
631.47283485467062
 20
597.42746244148157
 11
627.68131816709354
 21
597.28018693630383
  0
LINE
  8
_1-0_
  6
CONTINUOUS
 62
    7
 10
627.68131816709354
 20
597.28018693630383
 11
624.2544154194743
 21
597.08030499302549
  0
LINE
  8
_1-0_
  6
CONTINUOUS
 62
    7
 10
624.2544154194743
 20
597.08030499302549
 11
621.29625131770285
 21
596.8338899233479
  0
LINE
  8
_1-0_
  6
CONTINUOUS
 62
    7
 10
621.29625131770285
 20
596.8338899233479
 11
618.89670818110824
 21
596.54842892447118
  0
LINE
  8
_1-0_
  6
CONTINUOUS
 62
    7
 10
618.89670818110824
 20
596.54842892447118
 11
617.1286949136686
 21
596.23259558439611
  0
LINE
  8
_1-0_
  6
CONTINUOUS
 62
    7
 10
617.1286949136686
 20
596.23259558439611
 11
616.04593170385704
 21
595.89598633934122
  0
LINE
  8
_1-0_
  6
CONTINUOUS
 62
    7
 10
616.04593170385704
 20
595.89598633934122
 11
615.68131776389919
 21
595.54882889088515
  0
LINE
  8
_1-0_
  6
CONTINUOUS
 62
    7
 10
615.68131776389919
 20
595.54882889088515
 11
616.04593170385704
 21
595.20167144242907
  0
LINE
  8
_1-0_
  6
CONTINUOUS
 62
    7
 10
616.04593170385704
 20
595.20167144242907
 11
617.1286949136686
 21
594.86506219737419
  0
LINE
  8
_1-0_
  6
CONTINUOUS
 62
    7
 10
617.1286949136686
 20
594.86506219737419
 11
618.89670818110824
 21
594.54922885729911
  0
LINE
  8
_1-0_
  6
CONTINUOUS
 62
    7
 10
618.89670818110824
 20
594.54922885729911
 11
621.29625131770274
 21
594.2637678584224
  0
LINE
  8
_1-0_
  6
CONTINUOUS
 62
    7
 10
621.29625131770274
 20
594.2637678584224
 11
624.25441541947419
 21
594.0173527887448
  0
LINE
  8
_1-0_
  6
CONTINUOUS
 62
    7
 10
624.25441541947419
 20
594.0173527887448
 11
627.68131816709354
 21
593.81747084546646
  0
LINE
  8
_1-0_
  6
CONTINUOUS
 62
    7
 10
627.68131816709354
 20
593.81747084546646
 11
631.47283485467062
 21
593.67019534028873
  0
LINE
  8
_1-0_
  6
CONTINUOUS
 62
    7
 10
631.47283485467062
 20
593.67019534028873
 11
635.51376216625351
 21
593.58000116491144
  0
LINE
  8
_1-0_
  6
CONTINUOUS
 62
    7
 10
635.51376216625351
 20
593.58000116491144
 11
639.68131857028777
 21
593.54962882371296
  0
LINE
  8
_1-0_
  6
CONTINUOUS
 62
    7
 10
639.68131857028777
 20
593.54962882371296
 11
643.84887497432203
 21
593.58000116491144
  0
LINE
  8
_1-0_
  6
CONTINUOUS
 62
    7
 10
643.84887497432203
 20
593.58000116491144
 11
647.88980228590503
 21
593.67019534028873
  0
LINE
  8
_1-0_
  6
CONTINUOUS
 62
    7
 10
647.88980228590503
 20
593.67019534028873
 11
651.68131897348212
 21
593.81747084546646
  0
LINE
  8
_1-0_
  6
CONTINUOUS
 62
    7
 10
651.68131897348212
 20
593.81747084546646
 11
655.10822172110147
 21
594.0173527887448
  0
LINE
  8
_1-0_
  6
CONTINUOUS
 62
    7
 10
655.10822172110147
 20
594.0173527887448
 11
658.06638582287292
 21
594.2637678584224
  0
LINE
  8
_1-0_
  6
CONTINUOUS
 62
    7
 10
658.06638582287292
 20
594.2637678584224
 11
660.46592895946742
 21
594.549228857299
  0
LINE
  8
_1-0_
  6
CONTINUOUS
 62
    7
 10
660.46592895946742
 20
594.549228857299
 11
662.23394222690717
 21
594.86506219737419
  0
LINE
  8
_1-0_
  6
CONTINUOUS
 62
    7
 10
662.23394222690717
 20
594.86506219737419
 11
663.31670543671873
 21
595.20167144242907
  0
LINE
  8
_1-0_
  6
CONTINUOUS
 62
    7
 10
663.31670543671873
 20
595.20167144242907
 11
663.68131937667658
 21
595.54882889088515
  0
LINE
  8
_1-0_
  6
CONTINUOUS
 62
    7
 10
663.68131937667658
 20
595.54882889088515
 11
663.68131937667658
 21
595.54882889088515
  0
LINE
  8
_1-0_
  6
CONTINUOUS
 62
    7
 10
657.7753246566964
 20
595.15399711932912
 11
657.7753246566964
 21
595.15399711932912
  0
LINE
  8
_1-0_
  6
CONTINUOUS
 62
    7
 10
657.7753246566964
 20
595.15399711932912
 11
657.50186420172793
 21
595.32747165464707
  0
LINE
  8
_1-0_
  6
CONTINUOUS
 62
    7
 10
657.50186420172793
 20
595.32747165464707
 11
656.68979179436928
 21
595.49567525399164
  0
LINE
  8
_1-0_
  6
CONTINUOUS
 62
    7
 10
656.68979179436928
 20
595.49567525399164
 11
655.36378184378952
 21
595.65349713611204
  0
LINE
  8
_1-0_
  6
CONTINUOUS
 62
    7
 10
655.36378184378952
 20
595.65349713611204
 11
653.56412449134359
 21
595.79614196298178
  0
LINE
  8
_1-0_
  6
CONTINUOUS
 62
    7
 10
653.56412449134359
 20
595.79614196298178
 11
651.34550141501506
 21
595.91927554371796
  0
LINE
  8
_1-0_
  6
CONTINUOUS
 62
    7
 10
651.34550141501506
 20
595.91927554371796
 11
648.77532435430055
 21
596.01915652677872
  0
LINE
  8
_1-0_
  6
CONTINUOUS
 62
    7
 10
648.77532435430055
 20
596.01915652677872
 11
645.93168683861779
 21
596.09275007903591
  0
LINE
  8
_1-0_
  6
CONTINUOUS
 62
    7
 10
645.93168683861779
 20
596.09275007903591
 11
642.90099135493051
 21
596.13782009764429
  0
LINE
  8
_1-0_
  6
CONTINUOUS
 62
    7
 10
642.90099135493051
 20
596.13782009764429
 11
639.77532405190482
 21
596.15299715289507
  0
LINE
  8
_1-0_
  6
CONTINUOUS
 62
    7
 10
639.77532405190482
 20
596.15299715289507
 11
636.64965674887912
 21
596.13782009764429
  0
LINE
  8
_1-0_
  6
CONTINUOUS
 62
    7
 10
636.64965674887912
 20
596.13782009764429
 11
633.61896126519184
 21
596.09275007903591
  0
LINE
  8
_1-0_
  6
CONTINUOUS
 62
    7
 10
633.61896126519184
 20
596.09275007903591
 11
630.77532374950908
 21
596.01915652677872
  0
LINE
  8
_1-0_
  6
CONTINUOUS
 62
    7
 10
630.77532374950908
 20
596.01915652677872
 11
628.20514668879457
 21
595.91927554371796
  0
LINE
  8
_1-0_
  6
CONTINUOUS
 62
    7
 10
628.20514668879457
 20
595.91927554371796
 11
625.98652361246604
 21
595.79614196298178
  0
LINE
  8
_1-0_
  6
CONTINUOUS
 62
    7
 10
625.98652361246604
 20
595.79614196298178
 11
624.18686626002011
 21
595.65349713611204
  0
LINE
  8
_1-0_
  6
CONTINUOUS
 62
    7
 10
624.18686626002011
 20
595.65349713611204
 11
622.86085630944035
 21
595.49567525399164
  0
LINE
  8
_1-0_
  6
CONTINUOUS
 62
    7
 10
622.86085630944035
 20
595.49567525399164
 11
622.04878390208171
 21
595.32747165464707
  0
LINE
  8
_1-0_
  6
CONTINUOUS
 62
    7
 10
622.04878390208171
 20
595.32747165464707
 11
621.77532344711324
 21
595.15399711932912
  0
LINE
  8
_1-0_
  6
CONTINUOUS
 62
    7
 10
621.77532344711324
 20
595.15399711932912
 11
622.04878390208171
 21
594.98052258401117
  0
LINE
  8
_1-0_
  6
CONTINUOUS
 62
    7
 10
622.04878390208171
 20
594.98052258401117
 11
622.86085630944035
 21
594.8123189846666
  0
LINE
  8
_1-0_
  6
CONTINUOUS
 62
    7
 10
622.86085630944035
 20
594.8123189846666
 11
624.18686626002011
 21
594.6544971025462
  0
LINE
  8
_1-0_
  6
CONTINUOUS
 62
    7
 10
624.18686626002011
 20
594.6544971025462
 11
625.98652361246604
 21
594.51185227567646
  0
LINE
  8
_1-0_
  6
CONTINUOUS
 62
    7
 10
625.98652361246604
 20
594.51185227567646
 11
628.20514668879457
 21
594.38871869494028
  0
LINE
  8
_1-0_
  6
CONTINUOUS
 62
    7
 10
628.20514668879457
 20
594.38871869494028
 11
630.77532374950897
 21
594.28883771187952
  0
LINE
  8
_1-0_
  6
CONTINUOUS
 62
    7
 10
630.77532374950897
 20
594.28883771187952
 11
633.61896126519184
 21
594.21524415962233
  0
LINE
  8
_1-0_
  6
CONTINUOUS
 62
    7
 10
633.61896126519184
 20
594.21524415962233
 11
636.64965674887912
 21
594.17017414101394
  0
LINE
  8
_1-0_
  6
CONTINUOUS
 62
    7
 10
636.64965674887912
 20
594.17017414101394
 11
639.77532405190482
 21
594.15499708576317
  0
LINE
  8
_1-0_
  6
CONTINUOUS
 62
    7
 10
639.77532405190482
 20
594.15499708576317
 11
642.90099135493051
 21
594.17017414101394
  0
LINE
  8
_1-0_
  6
CONTINUOUS
 62
    7
 10
642.90099135493051
 20
594.17017414101394
 11
645.93168683861768
 21
594.21524415962233
  0
LINE
  8
_1-0_
  6
CONTINUOUS
 62
    7
 10
645.93168683861768
 20
594.21524415962233
 11
648.77532435430055
 21
594.28883771187952
  0
LINE
  8
_1-0_
  6
CONTINUOUS
 62
    7
 10
648.77532435430055
 20
594.28883771187952
 11
651.34550141501495
 21
594.38871869494028
  0
LINE
  8
_1-0_
  6
CONTINUOUS
 62
    7
 10
651.34550141501495
 20
594.38871869494028
 11
653.56412449134359
 21
594.51185227567646
  0
LINE
  8
_1-0_
  6
CONTINUOUS
 62
    7
 10
653.56412449134359
 20
594.51185227567646
 11
655.36378184378952
 21
594.6544971025462
  0
LINE
  8
_1-0_
  6
CONTINUOUS
 62
    7
 10
655.36378184378952
 20
594.6544971025462
 11
656.68979179436928
 21
594.8123189846666
  0
LINE
  8
_1-0_
  6
CONTINUOUS
 62
    7
 10
656.68979179436928
 20
594.8123189846666
 11
657.50186420172793
 21
594.98052258401117
  0
LINE
  8
_1-0_
  6
CONTINUOUS
 62
    7
 10
657.50186420172793
 20
594.98052258401117
 11
657.7753246566964
 21
595.15399711932912
  0
LINE
  8
_1-0_
  6
CONTINUOUS
 62
    7
 10
657.7753246566964
 20
595.15399711932912
 11
657.7753246566964
 21
595.15399711932912
  0
LINE
  8
_1-0_
  6
CONTINUOUS
 62
    7
 10
656.77821148776627
 20
594.88046697668119
 11
656.77821148776627
 21
594.88046697668119
  0
LINE
  8
_1-0_
  6
CONTINUOUS
 62
    7
 10
656.77821148776627
 20
594.88046697668119
 11
656.51994328375736
 21
594.98437804829587
  0
LINE
  8
_1-0_
  6
CONTINUOUS
 62
    7
 10
656.51994328375736
 20
594.98437804829587
 11
655.7529860204196
 21
595.08513183458103
  0
LINE
  8
_1-0_
  6
CONTINUOUS
 62
    7
 10
655.7529860204196
 20
595.08513183458103
 11
654.50064330610019
 21
595.17966698272437
  0
LINE
  8
_1-0_
  6
CONTINUOUS
 62
    7
 10
654.50064330610019
 20
595.17966698272437
 11
652.80096694045801
 21
595.26511109008652
  0
LINE
  8
_1-0_
  6
CONTINUOUS
 62
    7
 10
652.80096694045801
 20
595.26511109008652
 11
650.70560072978515
 21
595.33886798070216
  0
LINE
  8
_1-0_
  6
CONTINUOUS
 62
    7
 10
650.70560072978515
 20
595.33886798070216
 11
648.27821131608641
 21
595.39869658877285
  0
LINE
  8
_1-0_
  6
CONTINUOUS
 62
    7
 10
648.27821131608641
 20
595.39869658877285
 11
645.59255369837888
 21
595.44277905231684
  0
LINE
  8
_1-0_
  6
CONTINUOUS
 62
    7
 10
645.59255369837888
 20
595.44277905231684
 11
642.73023022436826
 21
595.46977594798636
  0
LINE
  8
_1-0_
  6
CONTINUOUS
 62
    7
 10
642.73023022436826
 20
595.46977594798636
 11
639.77821114440667
 21
595.47886698876744
  0
LINE
  8
_1-0_
  6
CONTINUOUS
 62
    7
 10
639.77821114440667
 20
595.47886698876744
 11
636.82619206444508
 21
595.46977594798636
  0
LINE
  8
_1-0_
  6
CONTINUOUS
 62
    7
 10
636.82619206444508
 20
595.46977594798636
 11
633.96386859043446
 21
595.44277905231684
  0
LINE
  8
_1-0_
  6
CONTINUOUS
 62
    7
 10
633.96386859043446
 20
595.44277905231684
 11
631.27821097272692
 21
595.39869658877285
  0
LINE
  8
_1-0_
  6
CONTINUOUS
 62
    7
 10
631.27821097272692
 20
595.39869658877285
 11
628.85082155902819
 21
595.33886798070216
  0
LINE
  8
_1-0_
  6
CONTINUOUS
 62
    7
 10
628.85082155902819
 20
595.33886798070216
 11
626.75545534835533
 21
595.26511109008652
  0
LINE
  8
_1-0_
  6
CONTINUOUS
 62
    7
 10
626.75545534835533
 20
595.26511109008652
 11
625.05577898271315
 21
595.17966698272437
  0
LINE
  8
_1-0_
  6
CONTINUOUS
 62
    7
 10
625.05577898271315
 20
595.17966698272437
 11
623.80343626839374
 21
595.08513183458103
  0
LINE
  8
_1-0_
  6
CONTINUOUS
 62
    7
 10
623.80343626839374
 20
595.08513183458103
 11
623.03647900505598
 21
594.98437804829587
  0
LINE
  8
_1-0_
  6
CONTINUOUS
 62
    7
 10
623.03647900505598
 20
594.98437804829587
 11
622.77821080104707
 21
594.88046697668119
  0
LINE
  8
_1-0_
  6
CONTINUOUS
 62
    7
 10
622.77821080104707
 20
594.88046697668119
 11
623.03647900505598
 21
594.77655590506652
  0
LINE
  8
_1-0_
  6
CONTINUOUS
 62
    7
 10
623.03647900505598
 20
594.77655590506652
 11
623.80343626839374
 21
594.67580211878135
  0
LINE
  8
_1-0_
  6
CONTINUOUS
 62
    7
 10
623.80343626839374
 20
594.67580211878135
 11
625.05577898271304
 21
594.58126697063801
  0
LINE
  8
_1-0_
  6
CONTINUOUS
 62
    7
 10
625.05577898271304
 20
594.58126697063801
 11
626.75545534835533
 21
594.49582286327586
  0
LINE
  8
_1-0_
  6
CONTINUOUS
 62
    7
 10
626.75545534835533
 20
594.49582286327586
 11
628.85082155902819
 21
594.42206597266022
  0
LINE
  8
_1-0_
  6
CONTINUOUS
 62
    7
 10
628.85082155902819
 20
594.42206597266022
 11
631.27821097272681
 21
594.36223736458953
  0
LINE
  8
_1-0_
  6
CONTINUOUS
 62
    7
 10
631.27821097272681
 20
594.36223736458953
 11
633.96386859043434
 21
594.31815490104555
  0
LINE
  8
_1-0_
  6
CONTINUOUS
 62
    7
 10
633.96386859043434
 20
594.31815490104555
 11
636.82619206444508
 21
594.29115800537602
  0
LINE
  8
_1-0_
  6
CONTINUOUS
 62
    7
 10
636.82619206444508
 20
594.29115800537602
 11
639.77821114440667
 21
594.28206696459495
  0
LINE
  8
_1-0_
  6
CONTINUOUS
 62
    7
 10
639.77821114440667
 20
594.28206696459495
 11
642.73023022436814
 21
594.29115800537602
  0
LINE
  8
_1-0_
  6
CONTINUOUS
 62
    7
 10
642.73023022436814
 20
594.29115800537602
 11
645.59255369837888
 21
594.31815490104555
  0
LINE
  8
_1-0_
  6
CONTINUOUS
 62
    7
 10
645.59255369837888
 20
594.31815490104555
 11
648.27821131608641
 21
594.36223736458953
  0
LINE
  8
_1-0_
  6
CONTINUOUS
 62
    7
 10
648.27821131608641
 20
594.36223736458953
 11
650.70560072978503
 21
594.42206597266022
  0
LINE
  8
_1-0_
  6
CONTINUOUS
 62
    7
 10
650.70560072978503
 20
594.42206597266022
 11
652.8009669404579
 21
594.49582286327586
  0
LINE
  8
_1-0_
  6
CONTINUOUS
 62
    7
 10
652.8009669404579
 20
594.49582286327586
 11
654.50064330610019
 21
594.58126697063801
  0
LINE
  8
_1-0_
  6
CONTINUOUS
 62
    7
 10
654.50064330610019
 20
594.58126697063801
 11
655.7529860204196
 21
594.67580211878135
  0
LINE
  8
_1-0_
  6
CONTINUOUS
 62
    7
 10
655.7529860204196
 20
594.67580211878135
 11
656.51994328375736
 21
594.77655590506652
  0
LINE
  8
_1-0_
  6
CONTINUOUS
 62
    7
 10
656.51994328375736
 20
594.77655590506652
 11
656.77821148776627
 21
594.88046697668119
  0
LINE
  8
_1-0_
  6
CONTINUOUS
 62
    7
 10
656.77821148776627
 20
594.88046697668119
 11
656.77821148776627
 21
594.88046697668119
  0
ARC
  8
_1-0_
  6
CONTINUOUS
 62
    7
 10
1440.9082358224052
 20
544.35866661513626
 40
1.0000000051204763
 50
270
 51
0
  0
ARC
  8
_1-0_
  6
CONTINUOUS
 62
    7
 10
1440.9082358224052
 20
662.35864278432484
 40
1.0000000051204763
 50
0
 51
90
  0
ARC
  8
_1-0_
  6
CONTINUOUS
 62
    7
 10
1428.9082545571343
 20
662.35864278432484
 40
1.0000000051204763
 50
90
 51
180
  0
ARC
  8
_1-0_
  6
CONTINUOUS
 62
    7
 10
1428.9082545571343
 20
544.35866661513626
 40
1.0000000051204763
 50
180
 51
270
  0
ARC
  8
_1-0_
  6
CONTINUOUS
 62
    7
 10
1502.0228223174695
 20
573.46235253175712
 40
9.9996923065553762
 50
285.96434020996094
 51
312.53663635253906
  0
ARC
  8
_1-1_
  6
CONTINUOUS
 62
    7
 10
423.86424252425371
 20
663.05701296301879
 40
9.7981952585308711
 50
118.8758544921875
 51
120.16337585449219
  0
ARC
  8
_1-1_
  6
CONTINUOUS
 62
    7
 10
424.47525628285064
 20
661.94434501029355
 40
11.067246704948454
 50
120.16337585449219
 51
120.98423767089844
  0
ARC
  8
_1-1_
  6
CONTINUOUS
 62
    7
 10
426.08944719822716
 20
659.25619942801336
 40
14.20279320142444
 50
120.98423767089844
 51
121.62388610839844
  0
ARC
  8
_1-1_
  6
CONTINUOUS
 62
    7
 10
423.79748944610242
 20
662.92783744546898
 40
9.8746000017438611
 50
121.62388610839844
 51
122.850830078125
  0
ARC
  8
_1-1_
  6
CONTINUOUS
 62
    7
 10
426.00611521010222
 20
659.44237315056398
 40
14.000763709020429
 50
122.850830078125
 51
124.00502014160155
  0
ARC
  8
_1-1_
  6
CONTINUOUS
 62
    7
 10
426.50588841972194
 20
658.70148397320474
 40
14.894451436849174
 50
124.00489807128905
 51
125.09001159667969
  0
ARC
  8
_1-1_
  6
CONTINUOUS
 62
    7
 10
425.83905753942076
 20
659.61747968519046
 40
13.761601176501239
 50
125.0899658203125
 51
126.10581970214844
  0
ARC
  8
_1-1_
  6
CONTINUOUS
 62
    7
 10
427.71046215042645
 20
657.02115239323791
 40
16.962032069570768
 50
126.10581970214844
 51
126.80853271484376
  0
ARC
  8
_1-1_
  6
CONTINUOUS
 62
    7
 10
427.78535158017434
 20
656.92106651983659
 40
17.087038253725265
 50
126.80853271484376
 51
127.506103515625
  0
ARC
  8
_1-1_
  6
CONTINUOUS
 62
    7
 10
428.2140848167154
 20
656.36070811150148
 40
17.792620695695913
 50
127.506103515625
 51
128.18292236328125
  0
ARC
  8
_1-1_
  6
CONTINUOUS
 62
    7
 10
425.88870678168917
 20
659.23253401826241
 40
14.097732834834389
 50
128.18292236328125
 51
129.46414184570312
  0
ARC
  8
_1-1_
  6
CONTINUOUS
 62
    7
 10
436.00087950128386
 20
646.94983640692863
 40
30.0074907711574
 50
129.46414184570312
 51
130.06608581542969
  0
ARC
  8
_1-1_
  6
CONTINUOUS
 62
    7
 10
426.86283803814632
 20
657.81470913684507
 40
15.810691840860374
 50
130.06608581542969
 51
131.20846557617187
  0
ARC
  8
_1-1_
  6
CONTINUOUS
 62
    7
 10
438.77931233998879
 20
644.20670483563401
 40
33.898826685651386
 50
131.20848083496094
 51
131.74125671386722
  0
ARC
  8
_1-1_
  6
CONTINUOUS
 62
    7
 10
428.16968483354128
 20
656.09741402408781
 40
17.962926345442252
 50
131.74130249023437
 51
132.74664306640625
  0
ARC
  8
_1-1_
  6
CONTINUOUS
 62
    7
 10
435.36808131744493
 20
648.25125896792611
 40
28.61080235956258
 50
132.74664306640625
 51
133.32501220703122
  0
ARC
  8
_1-1_
  6
CONTINUOUS
 62
    7
 10
413.21633917024229
 20
650.80594213772929
 40
25.114106837386785
 50
46.680587768554695
 51
47.940048217773445
  0
ARC
  8
_1-1_
  6
CONTINUOUS
 62
    7
 10
415.62089352994349
 20
653.48468279746498
 40
21.514454753242404
 50
47.940048217773438
 51
49.459503173828125
  0
ARC
  8
_1-1_
  6
CONTINUOUS
 62
    7
 10
419.88784127253825
 20
658.60104814919725
 40
14.85284012256902
 50
49.459503173828132
 51
51.163894653320312
  0
ARC
  8
_1-1_
  6
CONTINUOUS
 62
    7
 10
412.17116794070677
 20
649.01922557344756
 40
27.155606580977274
 50
51.163894653320312
 51
52.087127685546875
  0
ARC
  8
_1-1_
  6
CONTINUOUS
 62
    7
 10
420.90589133008564
 20
660.23426762879126
 40
12.940381931061911
 50
52.087127685546868
 51
54.024368286132805
  0
ARC
  8
_1-1_
  6
CONTINUOUS
 62
    7
 10
421.63886287497735
 20
661.47138676588145
 40
11.50867385293526
 50
54.024368286132813
 51
55.87799072265625
  0
ARC
  8
_1-1_
  6
CONTINUOUS
 62
    7
 10
416.25771614575484
 20
653.53004514480642
 40
21.101450156060885
 50
55.87799072265625
 51
56.888946533203118
  0
ARC
  8
_1-1_
  6
CONTINUOUS
 62
    7
 10
422.41444090618586
 20
662.97044393178578
 40
9.8308910343177516
 50
56.889007568359382
 51
59.058578491210937
  0
ARC
  8
_1-1_
  6
CONTINUOUS
 62
    7
 10
421.23392627966439
 20
661.12187359784105
 40
12.023322697311754
 50
59.058639526367188
 51
60.241165161132813
  0
ARC
  8
_1-1_
  6
CONTINUOUS
 62
    7
 10
421.44267181632131
 20
661.48700331168743
 40
11.602766822203705
 50
60.24116516113282
 51
61.466598510742202
  0
ARC
  8
_1-1_
  6
CONTINUOUS
 62
    7
 10
421.67692000341219
 20
661.91779250804063
 40
11.112388966166373
 50
61.466537475585938
 51
62.746124267578125
  0
ARC
  8
_1-1_
  6
CONTINUOUS
 62
    7
 10
422.41448465001156
 20
663.38727884771276
 40
9.4682834254268506
 50
62.746124267578125
 51
64.456192016601562
  0
ARC
  8
_1-1_
  6
CONTINUOUS
 62
    7
 10
422.77213416964855
 20
664.24492029609826
 40
8.5402752487815938
 50
64.456192016601562
 51
66.9842529296875
  0
ARC
  8
_1-1_
  6
CONTINUOUS
 62
    7
 10
423.36341946281522
 20
665.8531183073419
 40
6.828891020483951
 50
66.9842529296875
 51
69.731643676757812
  0
ARC
  8
_1-1_
  6
CONTINUOUS
 62
    7
 10
421.26887759646849
 20
660.18120636811113
 40
12.875181758725965
 50
69.731643676757812
 51
71.188873291015625
  0
ARC
  8
_1-1_
  6
CONTINUOUS
 62
    7
 10
423.44981351874509
 20
666.58416512389886
 40
6.1109871730841263
 50
71.18902587890625
 51
74.254348754882813
  0
ARC
  8
_1-1_
  6
CONTINUOUS
 62
    7
 10
422.11553934458141
 20
661.87960414812824
 40
11.001116976314529
 50
74.254348754882813
 51
75.878707885742188
  0
ARC
  8
_1-1_
  6
CONTINUOUS
 62
    7
 10
423.39049689097749
 20
666.94750134088827
 40
5.7752785995660139
 50
75.878707885742173
 51
78.972335815429673
  0
ARC
  8
_1-1_
  6
CONTINUOUS
 62
    7
 10
423.04614549437997
 20
665.42775334538635
 40
7.3328513344282342
 50
78.972335815429688
 51
82.147979736328125
  0
ARC
  8
_1-1_
  6
CONTINUOUS
 62
    7
 10
423.07532262618008
 20
665.63956094984837
 40
7.1190123760562143
 50
82.147903442382812
 51
85.4185791015625
  0
ARC
  8
_1-1_
  6
CONTINUOUS
 62
    7
 10
423.14837481524489
 20
666.94876991183594
 40
5.808154818634268
 50
85.418960571289063
 51
88.80023193359375
  0
ARC
  8
_1-1_
  6
CONTINUOUS
 62
    7
 10
423.09789444028638
 20
664.53752274678936
 40
8.2199515154923244
 50
88.800231933593764
 51
91.189834594726577
  0
ARC
  8
_1-1_
  6
CONTINUOUS
 62
    7
 10
423.01526235337417
 20
667.5993718327702
 40
5.1570539446871253
 50
91.189743041992188
 51
94.575759887695327
  0
ARC
  8
_1-1_
  6
CONTINUOUS
 62
    7
 10
423.45011972552555
 20
662.16582000025437
 40
10.607950887624822
 50
94.575759887695298
 51
96.222396850585923
  0
ARC
  8
_1-1_
  6
CONTINUOUS
 62
    7
 10
422.88674299321116
 20
667.33279695842259
 40
5.4103529096570249
 50
96.22222900390625
 51
99.450790405273437
  0
ARC
  8
_1-1_
  6
CONTINUOUS
 62
    7
 10
423.81905515221547
 20
661.73179376079304
 40
11.088450841001563
 50
99.450439453125
 51
101.026123046875
  0
ARC
  8
_1-1_
  6
CONTINUOUS
 62
    7
 10
422.77445259241517
 20
667.09277458632766
 40
5.6266292193221297
 50
101.02622985839844
 51
104.13067626953126
  0
ARC
  8
_1-1_
  6
CONTINUOUS
 62
    7
 10
422.73578305041923
 20
666.81522001170731
 40
5.8863366547698686
 50
104.13067626953126
 51
107.31581115722656
  0
ARC
  8
_1-1_
  6
CONTINUOUS
 62
    7
 10
424.70233048251231
 20
660.50749156465849
 40
12.493514144742811
 50
107.31581115722655
 51
108.81680297851561
  0
ARC
  8
_1-1_
  6
CONTINUOUS
 62
    7
 10
422.79273751159423
 20
666.11076944122897
 40
6.5737954829190226
 50
108.81680297851563
 51
111.6728515625
  0
ARC
  8
_1-1_
  6
CONTINUOUS
 62
    7
 10
425.54741745289675
 20
659.17890408784729
 40
14.032934558897864
 50
111.67276000976564
 51
113.01069641113283
  0
ARC
  8
_1-1_
  6
CONTINUOUS
 62
    7
 10
422.95095892946688
 20
665.2927598990068
 40
7.3905829320082796
 50
113.01095581054687
 51
115.55123901367189
  0
ARC
  8
_1-1_
  6
CONTINUOUS
 62
    7
 10
426.20147513606838
 20
658.47279125198895
 40
14.945572932254391
 50
115.55061340332031
 51
116.73991394042969
  0
ARC
  8
_1-1_
  6
CONTINUOUS
 62
    7
 10
423.30904588736161
 20
664.21377469213769
 40
8.5171074250490051
 50
116.73991394042969
 51
118.82670593261719
  0
ARC
  8
_1-1_
  6
CONTINUOUS
 62
    7
 10
391.77735892041767
 20
621.99144665338815
 40
52.057492981546176
 50
64.769668579101563
 51
66.152282714843764
  0
ARC
  8
_1-1_
  6
CONTINUOUS
 62
    7
 10
394.18567524913658
 20
627.49153284492638
 40
46.053270133765963
 50
66.15228271484375
 51
67.767410278320313
  0
ARC
  8
_1-1_
  6
CONTINUOUS
 62
    7
 10
396.58436793618222
 20
633.58115457659983
 40
39.508780963632589
 50
67.767410278320313
 51
69.529098510742187
  0
ARC
  8
_1-1_
  6
CONTINUOUS
 62
    7
 10
395.39182375756923
 20
630.47753013699207
 40
42.833483964780122
 50
69.529098510742187
 51
71.069046020507813
  0
ARC
  8
_1-1_
  6
CONTINUOUS
 62
    7
 10
397.62897049598251
 20
637.00017200013383
 40
35.937849435106664
 50
71.069046020507813
 51
72.9044189453125
  0
ARC
  8
_1-1_
  6
CONTINUOUS
 62
    7
 10
399.94021927527939
 20
645.07361997508622
 40
27.541697789343168
 50
72.9044189453125
 51
74.873519897460938
  0
ARC
  8
_1-1_
  6
CONTINUOUS
 62
    7
 10
395.42611891698641
 20
628.44449208970229
 40
44.772636825973919
 50
74.873519897460923
 51
76.038055419921861
  0
ARC
  8
_1-1_
  6
CONTINUOUS
 62
    7
 10
400.0070160972565
 20
646.86961023043477
 40
25.78656700126913
 50
76.038055419921875
 51
78.05987548828125
  0
ARC
  8
_1-1_
  6
CONTINUOUS
 62
    7
 10
398.8533164359427
 20
641.9696455848723
 40
30.819203936455331
 50
78.05987548828125
 51
80.1790771484375
  0
ARC
  8
_1-1_
  6
CONTINUOUS
 62
    7
 10
399.54726848823213
 20
646.32346856548054
 40
26.410829671101219
 50
80.1790771484375
 51
82.396682739257813
  0
ARC
  8
_1-1_
  6
CONTINUOUS
 62
    7
 10
398.84242422332164
 20
641.10548630644439
 40
31.676216567345104
 50
82.396682739257813
 51
84.216018676757813
  0
ARC
  8
_1-1_
  6
CONTINUOUS
 62
    7
 10
399.45470655286641
 20
647.14996440990546
 40
25.600786973150541
 50
84.216018676757813
 51
86.467010498046875
  0
ARC
  8
_1-1_
  6
CONTINUOUS
 62
    7
 10
399.34600314578489
 20
646.77193026745169
 40
25.984783945856865
 50
86.467010498046875
 51
88.75543212890625
  0
ARC
  8
_1-1_
  6
CONTINUOUS
 62
    7
 10
399.2751381480096
 20
643.50995317849413
 40
29.247545689689606
 50
88.75543212890625
 51
90.788726806640611
  0
ARC
  8
_1-1_
  6
CONTINUOUS
 62
    7
 10
399.22859471737183
 20
646.88614539658238
 40
25.871033594875257
 50
90.788619995117188
 51
93.087356567382813
  0
ARC
  8
_1-1_
  6
CONTINUOUS
 62
    7
 10
399.31376394617973
 20
644.66330288920165
 40
28.095245830800998
 50
93.087356567382813
 51
95.345458984375
  0
ARC
  8
_1-1_
  6
CONTINUOUS
 62
    7
 10
399.34254738354781
 20
644.34196074496822
 40
28.417878417895107
 50
95.345458984375
 51
97.5831298828125
  0
ARC
  8
_1-1_
  6
CONTINUOUS
 62
    7
 10
399.41826794598541
 20
643.7106935950319
 40
29.053615640029022
 50
97.5831298828125
 51
99.80438232421875
  0
ARC
  8
_1-1_
  6
CONTINUOUS
 62
    7
 10
399.71113285963128
 20
641.97502607544402
 40
30.813785170035931
 50
99.80438232421875
 51
101.92469787597656
  0
ARC
  8
_1-1_
  6
CONTINUOUS
 62
    7
 10
400.00268545850361
 20
640.59429595829431
 40
32.224980127857457
 50
101.92469787597658
 51
103.9521942138672
  0
ARC
  8
_1-1_
  6
CONTINUOUS
 62
    7
 10
400.17105544395889
 20
639.84238333683675
 40
32.995314367949732
 50
103.95219421386719
 51
105.99449157714844
  0
ARC
  8
_1-1_
  6
CONTINUOUS
 62
    7
 10
401.08031460677324
 20
636.60328426876583
 40
36.359564521598074
 50
105.99449157714844
 51
107.90699768066406
  0
ARC
  8
_1-1_
  6
CONTINUOUS
 62
    7
 10
401.90291725070324
 20
634.05551262343704
 40
39.036831561202703
 50
107.90605163574219
 51
109.68829345703125
  0
ARC
  8
_1-1_
  6
CONTINUOUS
 62
    7
 10
402.37591923894115
 20
632.65964714256495
 40
40.51043255448802
 50
109.68829345703126
 51
111.47608947753908
  0
ARC
  8
_1-1_
  6
CONTINUOUS
 62
    7
 10
399.93601986800371
 20
638.33527730698745
 40
34.335578712257174
 50
111.47608947753906
 51
113.15507507324219
  0
ARC
  8
_1-1_
  6
CONTINUOUS
 62
    7
 10
412.943946367065
 20
607.81280414478192
 40
67.514291803809201
 50
113.1550750732422
 51
113.93769836425783
  0
ARC
  8
_1-1_
  6
CONTINUOUS
 62
    7
 10
402.09871461492696
 20
632.24307468959262
 40
40.784952401194332
 50
113.9376983642578
 51
115.23321533203124
  0
ARC
  8
_1-1_
  6
CONTINUOUS
 62
    7
 10
365.68412309447763
 20
650.91245835352129
 40
24.968562927025161
 50
46.6822509765625
 51
48.062347412109375
  0
ARC
  8
_1-1_
  6
CONTINUOUS
 62
    7
 10
368.20394243512823
 20
653.73222910759523
 40
21.186983005420579
 50
48.062347412109375
 51
49.743270874023438
  0
ARC
  8
_1-1_
  6
CONTINUOUS
 62
    7
 10
372.44853708274576
 20
658.88468311560189
 40
14.511925350284944
 50
49.743270874023438
 51
51.643722534179688
  0
ARC
  8
_1-1_
  6
CONTINUOUS
 62
    7
 10
365.69438102162479
 20
650.36837264837902
 40
25.381422622783759
 50
51.643722534179688
 51
52.6781005859375
  0
ARC
  8
_1-1_
  6
CONTINUOUS
 62
    7
 10
373.74877856044691
 20
660.95328489325675
 40
12.080531419474186
 50
52.6781005859375
 51
54.733947753906257
  0
ARC
  8
_1-1_
  6
CONTINUOUS
 62
    7
 10
367.75272487213243
 20
652.49694721118817
 40
22.446924116620686
 50
54.73394775390625
 51
55.773208618164055
  0
ARC
  8
_1-1_
  6
CONTINUOUS
 62
    7
 10
374.55060288712787
 20
662.48965554255778
 40
10.361165993462198
 50
55.773208618164063
 51
58.024429321289063
  0
ARC
  8
_1-1_
  6
CONTINUOUS
 62
    7
 10
370.03011593026997
 20
655.24843385320833
 40
18.897593836066346
 50
58.024490356445305
 51
59.2587890625
  0
ARC
  8
_1-1_
  6
CONTINUOUS
 62
    7
 10
375.1811263920257
 20
663.9094926399614
 40
8.8205685969945549
 50
59.258880615234375
 51
61.902923583984375
  0
ARC
  8
_1-1_
  6
CONTINUOUS
 62
    7
 10
372.52360148779672
 20
658.98091953233404
 40
14.41992114869784
 50
61.902709960937493
 51
63.337005615234368
  0
ARC
  8
_1-1_
  6
CONTINUOUS
 62
    7
 10
375.29704753036197
 20
664.50418995153939
 40
8.2393888110819926
 50
63.337005615234368
 51
65.846939086914062
  0
ARC
  8
_1-1_
  6
CONTINUOUS
 62
    7
 10
374.88559310500676
 20
663.71317034982803
 40
9.1295332890219658
 50
65.846939086914077
 51
68.761642456054702
  0
ARC
  8
_1-1_
  6
CONTINUOUS
 62
    7
 10
375.78689089152806
 20
666.21662949963422
 40
6.4696168278174966
 50
68.761642456054687
 51
71.938201904296875
  0
ARC
  8
_1-1_
  6
CONTINUOUS
 62
    7
 10
375.23584991808559
 20
664.71989075649662
 40
8.063423803874425
 50
71.938201904296875
 51
73.637435913085938
  0
ARC
  8
_1-1_
  6
CONTINUOUS
 62
    7
 10
375.30535885726152
 20
664.95654485400576
 40
7.8167803936483313
 50
73.637435913085938
 51
75.3902587890625
  0
ARC
  8
_1-1_
  6
CONTINUOUS
 62
    7
 10
375.70574609469259
 20
666.64496904174325
 40
6.0819494747287051
 50
75.3902587890625
 51
78.366683959960923
  0
ARC
  8
_1-1_
  6
CONTINUOUS
 62
    7
 10
375.48396489795107
 20
665.82372245641284
 40
6.9310485741346497
 50
78.366683959960937
 51
81.831512451171889
  0
ARC
  8
_1-1_
  6
CONTINUOUS
 62
    7
 10
375.44302067701409
 20
665.6313808544262
 40
7.1272854271082338
 50
81.831512451171889
 51
85.412277221679702
  0
ARC
  8
_1-1_
  6
CONTINUOUS
 62
    7
 10
375.51502301426012
 20
666.96359906877785
 40
5.7935669362314881
 50
85.41265869140625
 51
89.128097534179688
  0
ARC
  8
_1-1_
  6
CONTINUOUS
 62
    7
 10
375.4593371240328
 20
666.96683611188621
 40
5.7911924666879724
 50
89.128097534179688
 51
91.74383544921875
  0
ARC
  8
_1-1_
  6
CONTINUOUS
 62
    7
 10
375.47158539525327
 20
665.87984578489795
 40
6.8780208048212943
 50
91.74383544921875
 51
93.59881591796875
  0
ARC
  8
_1-1_
  6
CONTINUOUS
 62
    7
 10
375.47827820059865
 20
665.77350454440898
 40
6.9845623100126106
 50
93.59881591796875
 51
95.425506591796875
  0
ARC
  8
_1-1_
  6
CONTINUOUS
 62
    7
 10
375.27123867314742
 20
667.36372384325421
 40
5.3819337763381281
 50
95.425506591796875
 51
98.982208251953125
  0
ARC
  8
_1-1_
  6
CONTINUOUS
 62
    7
 10
376.15801350950733
 20
661.75305326012563
 40
11.062242137879476
 50
98.981826782226563
 51
100.71261596679687
  0
ARC
  8
_1-1_
  6
CONTINUOUS
 62
    7
 10
375.14823103503375
 20
667.09084985799313
 40
5.6297774077842586
 50
100.71281433105467
 51
104.11257934570312
  0
ARC
  8
_1-1_
  6
CONTINUOUS
 62
    7
 10
375.6136215975846
 20
665.01231823188448
 40
7.7590337591281724
 50
104.11257934570312
 51
105.87483215332031
  0
ARC
  8
_1-1_
  6
CONTINUOUS
 62
    7
 10
375.68527398422418
 20
664.76035379534983
 40
8.0209895588716478
 50
105.87483215332031
 51
107.5795440673828
  0
ARC
  8
_1-1_
  6
CONTINUOUS
 62
    7
 10
375.77726724985484
 20
664.46923863473546
 40
8.3263043754349333
 50
107.57954406738281
 51
109.22512817382812
  0
ARC
  8
_1-1_
  6
CONTINUOUS
 62
    7
 10
375.17172146948155
 20
666.023981690867
 40
6.6588539851678386
 50
109.22512817382812
 51
112.31204223632812
  0
ARC
  8
_1-1_
  6
CONTINUOUS
 62
    7
 10
378.07871741217525
 20
658.93997531139701
 40
14.316137555022957
 50
112.31170654296875
 51
113.74789428710937
  0
ARC
  8
_1-1_
  6
CONTINUOUS
 62
    7
 10
375.36839371022108
 20
665.10028706554283
 40
7.5859326055151151
 50
113.74794006347655
 51
116.4578399658203
  0
ARC
  8
_1-1_
  6
CONTINUOUS
 62
    7
 10
376.82895630943267
 20
662.03222635630016
 40
10.983395258892457
 50
116.45783996582033
 51
117.86929321289063
  0
ARC
  8
_1-1_
  6
CONTINUOUS
 62
    7
 10
376.98525299897057
 20
661.73673681310697
 40
11.317691043537096
 50
117.86929321289063
 51
119.23907470703126
  0
ARC
  8
_1-1_
  6
CONTINUOUS
 62
    7
 10
377.25327141956939
 20
661.25686704422048
 40
11.867322645592413
 50
119.23907470703124
 51
120.55003356933594
  0
ARC
  8
_1-1_
  6
CONTINUOUS
 62
    7
 10
376.07000093202328
 20
663.12814042374896
 40
9.654367609834118
 50
120.55003356933594
 51
122.96730041503908
  0
ARC
  8
_1-1_
  6
CONTINUOUS
 62
    7
 10
382.36674967879947
 20
653.41976695999676
 40
21.225947818240606
 50
122.9671173095703
 51
124.06681823730467
  0
ARC
  8
_1-1_
  6
CONTINUOUS
 62
    7
 10
376.92357420461065
 20
661.46928706224355
 40
11.508790047472509
 50
124.06678771972656
 51
126.09490966796874
  0
ARC
  8
_1-1_
  6
CONTINUOUS
 62
    7
 10
380.19364390133887
 20
656.87010496279436
 40
17.151624645505631
 50
126.09490966796876
 51
127.1644744873047
  0
ARC
  8
_1-1_
  6
CONTINUOUS
 62
    7
 10
380.48357797865691
 20
656.48760895011037
 40
17.631595571989259
 50
127.1644744873047
 51
128.20491027832034
  0
ARC
  8
_1-1_
  6
CONTINUOUS
 62
    7
 10
381.0738134200048
 20
655.73648371751699
 40
18.586878707510163
 50
128.20491027832031
 51
129.19657897949219
  0
ARC
  8
_1-1_
  6
CONTINUOUS
 62
    7
 10
378.89292124155406
 20
658.28359920545893
 40
15.234600692181973
 50
129.19657897949222
 51
131.01121520996094
  0
ARC
  8
_1-1_
  6
CONTINUOUS
 62
    7
 10
391.06026638428671
 20
644.29218027122238
 40
33.776570894543269
 50
131.01123046875
 51
131.82963562011719
  0
ARC
  8
_1-1_
  6
CONTINUOUS
 62
    7
 10
380.85015123875451
 20
655.69973890385563
 40
18.467136819390255
 50
131.82974243164062
 51
133.32633972167969
  0
ARC
  8
_1-1_
  6
CONTINUOUS
 62
    7
 10
391.77735892041767
 20
583.92416965086943
 40
52.057492981546176
 50
293.84770202636719
 51
295.23031616210937
  0
ARC
  8
_1-1_
  6
CONTINUOUS
 62
    7
 10
394.18567524913658
 20
578.4240834593312
 40
46.053270133765963
 50
292.23257446289062
 51
293.84770202636719
  0
ARC
  8
_1-1_
  6
CONTINUOUS
 62
    7
 10
396.58436793618222
 20
572.33446172765775
 40
39.508780963632589
 50
290.47088623046875
 51
292.23257446289062
  0
ARC
  8
_1-1_
  6
CONTINUOUS
 62
    7
 10
395.39182375756923
 20
575.43808616726551
 40
42.833483964780122
 50
288.93093872070312
 51
290.47088623046875
  0
ARC
  8
_1-1_
  6
CONTINUOUS
 62
    7
 10
397.62897049598251
 20
568.91544430412375
 40
35.937849435106664
 50
287.09556579589844
 51
288.93093872070312
  0
ARC
  8
_1-1_
  6
CONTINUOUS
 62
    7
 10
399.94021927527939
 20
560.84199632917125
 40
27.541697789343168
 50
285.12646484375
 51
287.09556579589844
  0
ARC
  8
_1-1_
  6
CONTINUOUS
 62
    7
 10
395.42611891698641
 20
577.47112421455529
 40
44.772636825973919
 50
283.96192932128906
 51
285.12646484375
  0
ARC
  8
_1-1_
  6
CONTINUOUS
 62
    7
 10
400.0070160972565
 20
559.04600607382281
 40
25.78656700126913
 50
281.94010925292969
 51
283.96192932128906
  0
ARC
  8
_1-1_
  6
CONTINUOUS
 62
    7
 10
398.8533164359427
 20
563.94588323173377
 40
30.81913832071665
 50
279.82090759277344
 51
281.94010925292969
  0
ARC
  8
_1-1_
  6
CONTINUOUS
 62
    7
 10
399.54726848823213
 20
559.59214773877704
 40
26.410829671101219
 50
277.60330200195312
 51
279.82090759277344
  0
ARC
  8
_1-1_
  6
CONTINUOUS
 62
    7
 10
398.84242422332164
 20
564.81012999781308
 40
31.676216567345104
 50
275.78396606445312
 51
277.60330200195312
  0
ARC
  8
_1-1_
  6
CONTINUOUS
 62
    7
 10
399.45470655286641
 20
558.76565189435212
 40
25.600786973150541
 50
273.53297424316406
 51
275.78396606445312
  0
ARC
  8
_1-1_
  6
CONTINUOUS
 62
    7
 10
399.34600314578489
 20
559.14364229298008
 40
25.984783945856865
 50
271.24455261230469
 51
273.53297424316406
  0
ARC
  8
_1-1_
  6
CONTINUOUS
 62
    7
 10
399.27509440418373
 20
562.40898765652332
 40
29.250862018482103
 50
269.21136474609375
 51
271.24443054199219
  0
ARC
  8
_1-1_
  6
CONTINUOUS
 62
    7
 10
399.22859471737183
 20
559.0294709076752
 40
25.871033594875257
 50
266.91262817382812
 51
269.21136474609375
  0
ARC
  8
_1-1_
  6
CONTINUOUS
 62
    7
 10
399.31376394617973
 20
561.25231341505594
 40
28.095245830800998
 50
264.65452575683594
 51
266.91262817382812
  0
ARC
  8
_1-1_
  6
CONTINUOUS
 62
    7
 10
399.34254738354781
 20
561.57365555928936
 40
28.417878417895107
 50
262.41685485839844
 51
264.65452575683594
  0
ARC
  8
_1-1_
  6
CONTINUOUS
 62
    7
 10
399.41826794598541
 20
562.20492270922568
 40
29.053615640029022
 50
260.19560241699219
 51
262.41685485839844
  0
ARC
  8
_1-1_
  6
CONTINUOUS
 62
    7
 10
399.71117660345726
 20
563.9408089479424
 40
30.814006623153979
 50
258.07528686523437
 51
260.19560241699219
  0
ARC
  8
_1-1_
  6
CONTINUOUS
 62
    7
 10
400.00268545850361
 20
565.32132034596327
 40
32.224980127857457
 50
256.04779052734375
 51
258.07528686523437
  0
ARC
  8
_1-1_
  6
CONTINUOUS
 62
    7
 10
400.17105544395889
 20
566.07323296742084
 40
32.995314367949732
 50
254.0054931640625
 51
256.04779052734375
  0
ARC
  8
_1-1_
  6
CONTINUOUS
 62
    7
 10
401.09072563731075
 20
569.34645221960591
 40
36.395215739614713
 50
252.09393310546875
 51
254.00456237792969
  0
ARC
  8
_1-1_
  6
CONTINUOUS
 62
    7
 10
401.90291725070324
 20
571.86010368082054
 40
39.036831561202703
 50
250.31169128417972
 51
252.09393310546875
  0
ARC
  8
_1-1_
  6
CONTINUOUS
 62
    7
 10
402.37591923894115
 20
573.25596916169263
 40
40.51043255448802
 50
248.52389526367187
 51
250.31169128417969
  0
ARC
  8
_1-1_
  6
CONTINUOUS
 62
    7
 10
399.93601986800371
 20
567.58033899727013
 40
34.335578712257174
 50
246.84490966796869
 51
248.52389526367182
  0
ARC
  8
_1-1_
  6
CONTINUOUS
 62
    7
 10
412.943946367065
 20
598.10281215947566
 40
67.514291803809201
 50
246.06228637695312
 51
246.84490966796875
  0
ARC
  8
_1-1_
  6
CONTINUOUS
 62
    7
 10
402.09871461492696
 20
573.67254161466496
 40
40.784952401194332
 50
244.76676940917969
 51
246.06228637695312
  0
ARC
  8
_1-1_
  6
CONTINUOUS
 62
    7
 10
423.86139917557756
 20
542.85230423032544
 40
9.7913274778822661
 50
239.85296630859375
 51
241.14443969726562
  0
ARC
  8
_1-1_
  6
CONTINUOUS
 62
    7
 10
424.47206298356804
 20
543.96523464600546
 40
11.060430870092972
 50
239.02964782714844
 51
239.85296630859375
  0
ARC
  8
_1-1_
  6
CONTINUOUS
 62
    7
 10
426.08498532799672
 20
546.65272407089878
 40
14.194770310376141
 50
238.38813781738281
 51
239.02964782714844
  0
ARC
  8
_1-1_
  6
CONTINUOUS
 62
    7
 10
423.79543348629045
 20
542.98344822003571
 40
9.8698531131486629
 50
237.1576843261719
 51
238.38813781738281
  0
ARC
  8
_1-1_
  6
CONTINUOUS
 62
    7
 10
426.00510910210915
 20
546.47175586361675
 40
13.99894423926659
 50
236.00047302246091
 51
237.15756225585935
  0
ARC
  8
_1-1_
  6
CONTINUOUS
 62
    7
 10
426.50475108025148
 20
547.21251380949866
 40
14.892473395726855
 50
234.91258239746094
 51
236.00042724609372
  0
ARC
  8
_1-1_
  6
CONTINUOUS
 62
    7
 10
425.83078995634679
 20
546.28654450523345
 40
13.747388534104042
 50
233.89424133300781
 51
234.91258239746094
  0
ARC
  8
_1-1_
  6
CONTINUOUS
 62
    7
 10
427.71024343129739
 20
548.89415770423921
 40
16.961658880057019
 50
233.19146728515625
 51
233.89424133300781
  0
ARC
  8
_1-1_
  6
CONTINUOUS
 62
    7
 10
427.78578901843218
 20
548.99516219798204
 40
17.087791467725538
 50
232.493896484375
 51
233.19146728515625
  0
ARC
  8
_1-1_
  6
CONTINUOUS
 62
    7
 10
428.2140410728897
 20
549.55482070510448
 40
17.792505868153221
 50
231.81706237792966
 51
232.49389648437497
  0
ARC
  8
_1-1_
  6
CONTINUOUS
 62
    7
 10
425.88866303786347
 20
546.68299479834354
 40
14.097656283139262
 50
230.53584289550781
 51
231.81706237792972
  0
ARC
  8
_1-1_
  6
CONTINUOUS
 62
    7
 10
436.00013585624538
 20
558.96486127698745
 40
30.006334293763146
 50
229.93388366699219
 51
230.53584289550781
  0
ARC
  8
_1-1_
  6
CONTINUOUS
 62
    7
 10
426.86261931901726
 20
548.10064470445786
 40
15.810351459215966
 50
228.79148864746097
 51
229.93389892578128
  0
ARC
  8
_1-1_
  6
CONTINUOUS
 62
    7
 10
438.77546288331956
 20
561.70458082987068
 40
33.893033362723685
 50
228.2586669921875
 51
228.7915344238281
  0
ARC
  8
_1-1_
  6
CONTINUOUS
 62
    7
 10
428.16977232119285
 20
549.81824602399547
 40
17.963002897137379
 50
227.25332641601562
 51
228.2586669921875
  0
ARC
  8
_1-1_
  6
CONTINUOUS
 62
    7
 10
435.36838752422557
 20
557.66466354311194
 40
28.611242531809566
 50
226.67497253417969
 51
227.25332641601562
  0
ARC
  8
_1-1_
  6
CONTINUOUS
 62
    7
 10
413.21633917024229
 20
555.10967416652841
 40
25.114109571375902
 50
312.0599365234375
 51
313.31939697265625
  0
ARC
  8
_1-1_
  6
CONTINUOUS
 62
    7
 10
415.62089352994349
 20
552.43093350679248
 40
21.514454753242404
 50
310.54048156738281
 51
312.0599365234375
  0
ARC
  8
_1-1_
  6
CONTINUOUS
 62
    7
 10
419.88784127253825
 20
547.31456815506033
 40
14.852838755574464
 50
308.83609008789062
 51
310.54048156738281
  0
ARC
  8
_1-1_
  6
CONTINUOUS
 62
    7
 10
412.17116794070677
 20
556.8963469869841
 40
27.155603846988157
 50
307.91285705566406
 51
308.83609008789062
  0
ARC
  8
_1-1_
  6
CONTINUOUS
 62
    7
 10
420.90589133008564
 20
545.68130493164062
 40
12.940379197072797
 50
305.97561645507812
 51
307.91285705566406
  0
ARC
  8
_1-1_
  6
CONTINUOUS
 62
    7
 10
421.63886287497735
 20
544.44422953837625
 40
11.508672485940705
 50
304.12199401855469
 51
305.97561645507812
  0
ARC
  8
_1-1_
  6
CONTINUOUS
 62
    7
 10
416.25915969200577
 20
552.38342771198757
 40
21.098876105312211
 50
303.11097717285156
 51
304.12205505371094
  0
ARC
  8
_1-1_
  6
CONTINUOUS
 62
    7
 10
422.41474711296632
 20
542.9446911903882
 40
9.830297758680512
 50
300.94134521484375
 51
303.11103820800781
  0
ARC
  8
_1-1_
  6
CONTINUOUS
 62
    7
 10
421.23392627966439
 20
544.79374270641665
 40
12.023325431300867
 50
299.75881958007812
 51
300.94134521484375
  0
ARC
  8
_1-1_
  6
CONTINUOUS
 62
    7
 10
421.44205940276038
 20
544.42975033204061
 40
11.604051797086207
 50
298.533447265625
 51
299.75875854492187
  0
ARC
  8
_1-1_
  6
CONTINUOUS
 62
    7
 10
421.67692000341219
 20
543.99782379621695
 40
11.112392383652763
 50
297.25386047363281
 51
298.533447265625
  0
ARC
  8
_1-1_
  6
CONTINUOUS
 62
    7
 10
422.41448465001156
 20
542.52833745654482
 40
9.4682861594159622
 50
295.54379272460937
 51
297.25386047363281
  0
ARC
  8
_1-1_
  6
CONTINUOUS
 62
    7
 10
422.77213416964855
 20
541.67069600815933
 40
8.5402752487815938
 50
293.0157470703125
 51
295.54379272460937
  0
ARC
  8
_1-1_
  6
CONTINUOUS
 62
    7
 10
423.36341946281522
 20
540.06249799691568
 40
6.8288889699921187
 50
290.26834106445312
 51
293.0157470703125
  0
ARC
  8
_1-1_
  6
CONTINUOUS
 62
    7
 10
421.26983996063586
 20
545.73178530659914
 40
12.872420429723142
 50
288.81095886230469
 51
290.26850891113281
  0
ARC
  8
_1-1_
  6
CONTINUOUS
 62
    7
 10
423.44981351874509
 20
539.33145118035861
 40
6.1109837555977364
 50
285.74563598632812
 51
288.81095886230469
  0
ARC
  8
_1-1_
  6
CONTINUOUS
 62
    7
 10
422.11553934458141
 20
544.03601215612935
 40
11.001108774347195
 50
284.12127685546875
 51
285.74563598632812
  0
ARC
  8
_1-1_
  6
CONTINUOUS
 62
    7
 10
423.39049689097749
 20
538.96811496336943
 40
5.7752772325714572
 50
281.02763366699219
 51
284.12127685546875
  0
ARC
  8
_1-1_
  6
CONTINUOUS
 62
    7
 10
423.04605800672846
 20
540.4881691656517
 40
7.3331746286406938
 50
277.85206604003906
 51
281.02757263183594
  0
ARC
  8
_1-1_
  6
CONTINUOUS
 62
    7
 10
423.07549760148333
 20
540.27443683285503
 40
7.1174041069612537
 50
274.58102416992187
 51
277.85244750976562
  0
ARC
  8
_1-1_
  6
CONTINUOUS
 62
    7
 10
423.14837481524489
 20
538.96684639242164
 40
5.8081623371043261
 50
271.19976806640625
 51
274.58102416992187
  0
ARC
  8
_1-1_
  6
CONTINUOUS
 62
    7
 10
423.09789444028638
 20
541.37861848337764
 40
8.2204907948446078
 50
268.81024169921875
 51
271.19969177246094
  0
ARC
  8
_1-1_
  6
CONTINUOUS
 62
    7
 10
423.01526235337417
 20
538.31624447148738
 40
5.1570505272007345
 50
265.42424011230469
 51
268.81024169921875
  0
ARC
  8
_1-1_
  6
CONTINUOUS
 62
    7
 10
423.45033844465462
 20
543.75185226381507
 40
10.610056742738113
 50
263.77775573730469
 51
265.424072265625
  0
ARC
  8
_1-1_
  6
CONTINUOUS
 62
    7
 10
422.88691796851424
 20
538.58391294147975
 40
5.4114687189632393
 50
260.54953002929687
 51
263.77742004394531
  0
ARC
  8
_1-1_
  6
CONTINUOUS
 62
    7
 10
423.8187926892607
 20
544.18242274103932
 40
11.087027116171642
 50
258.9737548828125
 51
260.54963684082031
  0
ARC
  8
_1-1_
  6
CONTINUOUS
 62
    7
 10
422.77445259241517
 20
538.82284171792992
 40
5.6266165746224894
 50
255.86929321289065
 51
258.9737548828125
  0
ARC
  8
_1-1_
  6
CONTINUOUS
 62
    7
 10
422.73578305041923
 20
539.10039629255016
 40
5.8863448567372023
 50
252.68415832519531
 51
255.8692932128906
  0
ARC
  8
_1-1_
  6
CONTINUOUS
 62
    7
 10
423.42417963683374
 20
541.49125883477996
 40
8.3737329350475171
 50
251.1893310546875
 51
252.68415832519531
  0
ARC
  8
_1-1_
  6
CONTINUOUS
 62
    7
 10
423.49167636002346
 20
541.68950585324785
 40
8.5831578679986897
 50
249.73098754882812
 51
251.1893310546875
  0
ARC
  8
_1-1_
  6
CONTINUOUS
 62
    7
 10
422.83381296400847
 20
540.06577878384974
 40
6.8320863702582564
 50
246.98298645019531
 51
249.73100280761719
  0
ARC
  8
_1-1_
  6
CONTINUOUS
 62
    7
 10
425.87173417728377
 20
547.21697567972899
 40
14.601820279272367
 50
245.69761657714841
 51
246.98327636718747
  0
ARC
  8
_1-1_
  6
CONTINUOUS
 62
    7
 10
423.02357368027373
 20
540.90968467093808
 40
7.6812592873702172
 50
243.25442504882812
 51
245.69761657714844
  0
ARC
  8
_1-1_
  6
CONTINUOUS
 62
    7
 10
424.58032895239171
 20
544.11308877716647
 40
11.242524797391706
 50
241.19387817382812
 51
243.25442504882812
  0
ARC
  8
_1-1_
  6
CONTINUOUS
 62
    7
 10
305.17057676573063
 20
735.7372045332861
 40
91.684472496445125
 50
313.11854553222656
 51
313.34809875488281
  0
ARC
  8
_1-1_
  6
CONTINUOUS
 62
    7
 10
365.68412309447763
 20
555.00315795073629
 40
24.968562927025161
 50
311.93763732910156
 51
313.31773376464844
  0
ARC
  8
_1-1_
  6
CONTINUOUS
 62
    7
 10
368.20394243512823
 20
552.18338719666224
 40
21.186983005420579
 50
310.2567138671875
 51
311.93763732910156
  0
ARC
  8
_1-1_
  6
CONTINUOUS
 62
    7
 10
372.44853708274576
 20
547.03093318865558
 40
14.511925350284944
 50
308.35626220703125
 51
310.2567138671875
  0
ARC
  8
_1-1_
  6
CONTINUOUS
 62
    7
 10
365.69438102162479
 20
555.54724365587856
 40
25.381422622783759
 50
307.32188415527344
 51
308.35626220703125
  0
ARC
  8
_1-1_
  6
CONTINUOUS
 62
    7
 10
373.74877856044691
 20
544.96233141100083
 40
12.080531419474186
 50
305.26603698730469
 51
307.32188415527344
  0
ARC
  8
_1-1_
  6
CONTINUOUS
 62
    7
 10
367.75272487213243
 20
553.41866909306941
 40
22.446924116620686
 50
304.22677612304688
 51
305.26603698730469
  0
ARC
  8
_1-1_
  6
CONTINUOUS
 62
    7
 10
374.55090909390833
 20
543.42547957961619
 40
10.360629448099026
 50
301.97549438476562
 51
304.22683715820313
  0
ARC
  8
_1-1_
  6
CONTINUOUS
 62
    7
 10
370.0315594765209
 20
550.66477654063101
 40
18.894766891324842
 50
300.74110412597656
 51
301.9755859375
  0
ARC
  8
_1-1_
  6
CONTINUOUS
 62
    7
 10
375.18038274698739
 20
542.00739223524408
 40
8.8220217122074249
 50
298.09727478027344
 51
300.74089050292969
  0
ARC
  8
_1-1_
  6
CONTINUOUS
 62
    7
 10
372.52360148779672
 20
546.93469677192365
 40
14.41992114869784
 50
296.66297912597656
 51
298.09727478027344
  0
ARC
  8
_1-1_
  6
CONTINUOUS
 62
    7
 10
375.29704753036197
 20
541.41142635271808
 40
8.2393888110819926
 50
294.15304565429687
 51
296.66297912597656
  0
ARC
  8
_1-1_
  6
CONTINUOUS
 62
    7
 10
374.88559310500676
 20
542.20244595442955
 40
9.1295332890219658
 50
291.23834228515625
 51
294.15304565429687
  0
ARC
  8
_1-1_
  6
CONTINUOUS
 62
    7
 10
375.78689089152806
 20
539.69898680462336
 40
6.4696168278174966
 50
288.06178283691406
 51
291.23834228515625
  0
ARC
  8
_1-1_
  6
CONTINUOUS
 62
    7
 10
375.23584991808559
 20
541.19572554776107
 40
8.063423803874425
 50
286.362548828125
 51
288.06178283691406
  0
ARC
  8
_1-1_
  6
CONTINUOUS
 62
    7
 10
375.30535885726152
 20
540.95907145025183
 40
7.8167803936483313
 50
284.60972595214844
 51
286.362548828125
  0
ARC
  8
_1-1_
  6
CONTINUOUS
 62
    7
 10
375.70574609469259
 20
539.27064726251433
 40
6.0819494747287051
 50
281.63330078125006
 51
284.60972595214844
  0
ARC
  8
_1-1_
  6
CONTINUOUS
 62
    7
 10
375.48396489795107
 20
540.09189384784474
 40
6.9310485741346497
 50
278.16847229003906
 51
281.63330078125
  0
ARC
  8
_1-1_
  6
CONTINUOUS
 62
    7
 10
375.44319565231729
 20
540.28274815975465
 40
7.1257625951730139
 50
274.58732604980469
 51
278.16885375976562
  0
ARC
  8
_1-1_
  6
CONTINUOUS
 62
    7
 10
375.51502301426012
 20
538.95201723547973
 40
5.7935669362314881
 50
270.87188720703119
 51
274.58732604980469
  0
ARC
  8
_1-1_
  6
CONTINUOUS
 62
    7
 10
375.4593371240328
 20
538.94878019237149
 40
5.7911924666879724
 50
268.25614929199219
 51
270.87188720703125
  0
ARC
  8
_1-1_
  6
CONTINUOUS
 62
    7
 10
375.47158539525327
 20
540.03577051935963
 40
6.8780208048212943
 50
266.40116882324219
 51
268.25614929199219
  0
ARC
  8
_1-1_
  6
CONTINUOUS
 62
    7
 10
375.47827820059865
 20
540.14206801602279
 40
6.9845623100126106
 50
264.57447814941406
 51
266.40116882324219
  0
ARC
  8
_1-1_
  6
CONTINUOUS
 62
    7
 10
375.27141364845068
 20
538.55302980047395
 40
5.3830711158085975
 50
261.01815795898438
 51
264.5740966796875
  0
ARC
  8
_1-1_
  6
CONTINUOUS
 62
    7
 10
376.15757607124948
 20
544.15993841458464
 40
11.059579232484678
 50
259.28717041015625
 51
261.01835632324219
  0
ARC
  8
_1-1_
  6
CONTINUOUS
 62
    7
 10
375.14823103503375
 20
538.82476644626445
 40
5.6297774077842586
 50
255.88740539550781
 51
259.28717041015625
  0
ARC
  8
_1-1_
  6
CONTINUOUS
 62
    7
 10
375.6136215975846
 20
540.90329807237299
 40
7.7590337591281724
 50
254.12515258789065
 51
255.88740539550784
  0
ARC
  8
_1-1_
  6
CONTINUOUS
 62
    7
 10
375.68527398422418
 20
541.15526250890775
 40
8.0209895588716478
 50
252.42044067382812
 51
254.12515258789062
  0
ARC
  8
_1-1_
  6
CONTINUOUS
 62
    7
 10
375.77726724985484
 20
541.44637766952212
 40
8.3263043754349333
 50
250.77485656738281
 51
252.42044067382812
  0
ARC
  8
_1-1_
  6
CONTINUOUS
 62
    7
 10
375.1722026515651
 20
539.89299067198999
 40
6.6602934304351518
 50
247.68827819824222
 51
250.77452087402347
  0
ARC
  8
_1-1_
  6
CONTINUOUS
 62
    7
 10
378.07832371774327
 20
546.97467862869314
 40
14.315067198285725
 50
246.25204467773437
 51
247.68833923339844
  0
ARC
  8
_1-1_
  6
CONTINUOUS
 62
    7
 10
375.36839371022108
 20
540.81532923871487
 40
7.5859326055151151
 50
243.54214477539062
 51
246.25204467773437
  0
ARC
  8
_1-1_
  6
CONTINUOUS
 62
    7
 10
376.82895630943267
 20
543.88338994795743
 40
10.983395258892457
 50
242.13069152832031
 51
243.54214477539062
  0
ARC
  8
_1-1_
  6
CONTINUOUS
 62
    7
 10
376.98525299897057
 20
544.17887949115061
 40
11.317691043537096
 50
240.76091003417969
 51
242.13069152832031
  0
ARC
  8
_1-1_
  6
CONTINUOUS
 62
    7
 10
377.25327141956939
 20
544.6587492600371
 40
11.867322645592413
 50
239.449951171875
 51
240.76091003417969
  0
ARC
  8
_1-1_
  6
CONTINUOUS
 62
    7
 10
376.07074457706176
 20
542.7886569638049
 40
9.6557762977239232
 50
237.03286743164062
 51
239.44976806640625
  0
ARC
  8
_1-1_
  6
CONTINUOUS
 62
    7
 10
382.36740583618626
 20
552.49689919607977
 40
21.227202719242875
 50
235.93319702148435
 51
237.03283691406247
  0
ARC
  8
_1-1_
  6
CONTINUOUS
 62
    7
 10
376.92357420461065
 20
544.44632924201403
 40
11.508790047472509
 50
233.90507507324219
 51
235.93319702148435
  0
ARC
  8
_1-1_
  6
CONTINUOUS
 62
    7
 10
380.19364390133887
 20
549.04551134146323
 40
17.151624645505631
 50
232.83551025390625
 51
233.90507507324219
  0
ARC
  8
_1-1_
  6
CONTINUOUS
 62
    7
 10
380.48357797865691
 20
549.4280073541471
 40
17.631595571989259
 50
231.79507446289065
 51
232.83551025390628
  0
ARC
  8
_1-1_
  6
CONTINUOUS
 62
    7
 10
381.0738134200048
 20
550.17913258674059
 40
18.586878707510163
 50
230.80340576171878
 51
231.79507446289065
  0
ARC
  8
_1-1_
  6
CONTINUOUS
 62
    7
 10
378.89279001007662
 20
547.63184212349552
 40
15.234402477971374
 50
228.98875427246097
 51
230.80342102050784
  0
ARC
  8
_1-1_
  6
CONTINUOUS
 62
    7
 10
391.05392352954766
 20
561.61621830178046
 40
33.76698279472852
 50
228.17024230957031
 51
228.98887634277344
  0
ARC
  8
_1-1_
  6
CONTINUOUS
 62
    7
 10
380.85015123875451
 20
550.21587740040195
 40
18.467136819390255
 50
226.67364501953125
 51
228.17024230957031
  0
ARC
  8
_1-1_
  6
CONTINUOUS
 62
    7
 10
305.20172236969103
 20
470.21156959091832
 40
91.639000789539224
 50
46.651840209960945
 51
46.881439208984382
  0
ARC
  8
_1-1_
  6
CONTINUOUS
 62
    7
 10
383.34958595658816
 20
536.29821055644265
 40
0.7596698883762691
 50
130.076904296875
 51
133.23222351074219
  0
ARC
  8
_1-1_
  6
CONTINUOUS
 62
    7
 10
383.30089907848702
 20
536.36150787235681
 40
0.6799241677501946
 50
126.65824890136719
 51
130.076904296875
  0
ARC
  8
_1-1_
  6
CONTINUOUS
 62
    7
 10
383.31424094535208
 20
536.354071421973
 40
0.6938615316187092
 50
124.34346008300781
 51
126.65824890136719
  0
ARC
  8
_1-1_
  6
CONTINUOUS
 62
    7
 10
383.52412382147946
 20
536.04690227729475
 40
1.0658543697885565
 50
122.83644104003905
 51
124.34346008300781
  0
ARC
  8
_1-1_
  6
CONTINUOUS
 62
    7
 10
383.30606084992979
 20
536.38998510294437
 40
0.6593437656817748
 50
119.90776062011719
 51
122.83644104003908
  0
ARC
  8
_1-1_
  6
CONTINUOUS
 62
    7
 10
383.43891084884575
 20
536.17043484131796
 40
0.9159073699625301
 50
117.092529296875
 51
119.90776062011719
  0
ARC
  8
_1-1_
  6
CONTINUOUS
 62
    7
 10
383.45404621256819
 20
536.14086401508575
 40
0.9491099589809947
 50
114.37153625488281
 51
117.09210205078125
  0
ARC
  8
_1-1_
  6
CONTINUOUS
 62
    7
 10
383.46546335109878
 20
536.11566757143225
 40
0.9768041579994915
 50
111.72984313964845
 51
114.37261962890626
  0
ARC
  8
_1-1_
  6
CONTINUOUS
 62
    7
 10
383.47416837243031
 20
536.09388314619025
 40
1.0002306000146166
 50
109.14999389648439
 51
111.72984313964845
  0
ARC
  8
_1-1_
  6
CONTINUOUS
 62
    7
 10
383.47084384167061
 20
536.10635013653962
 40
0.9873881133481801
 50
106.4248504638672
 51
109.14999389648439
  0
ARC
  8
_1-1_
  6
CONTINUOUS
 62
    7
 10
383.49787752600707
 20
536.01807509610092
 40
1.0796839973986379
 50
103.82772827148437
 51
106.42485046386719
  0
ARC
  8
_1-1_
  6
CONTINUOUS
 62
    7
 10
383.49883989017439
 20
536.02074346947393
 40
1.0773238812979584
 50
101.06417846679689
 51
103.82847595214845
  0
ARC
  8
_1-1_
  6
CONTINUOUS
 62
    7
 10
383.526267268943
 20
535.88841839646739
 40
1.212457444619488
 50
98.753067016601563
 51
101.06417846679687
  0
ARC
  8
_1-1_
  6
CONTINUOUS
 62
    7
 10
383.53742194451883
 20
535.81597862096362
 40
1.2857404848898699
 50
96.573181152343736
 51
98.752838134765611
  0
ARC
  8
_1-1_
  6
CONTINUOUS
 62
    7
 10
383.54678312323728
 20
535.73452761734768
 40
1.3677516145250512
 50
94.523635864257813
 51
96.573013305664063
  0
ARC
  8
_1-1_
  6
CONTINUOUS
 62
    7
 10
383.5538696230148
 20
535.64502774978689
 40
1.4575206945761749
 50
92.600509643554688
 51
94.52374267578125
  0
ARC
  8
_1-1_
  6
CONTINUOUS
 62
    7
 10
383.55837523707095
 20
535.54555428994672
 40
1.5571135955657736
 50
90.800369262695298
 51
92.600509643554673
  0
ARC
  8
_1-1_
  6
CONTINUOUS
 62
    7
 10
383.55999375862496
 20
535.55334069093681
 40
1.5493266819526788
 50
88.863601684570313
 51
90.800369262695298
  0
ARC
  8
_1-1_
  6
CONTINUOUS
 62
    7
 10
383.55942508888972
 20
535.41252931572751
 40
1.6901501892386257
 50
86.938644409179688
 51
88.863601684570313
  0
ARC
  8
_1-1_
  6
CONTINUOUS
 62
    7
 10
383.55426331744695
 20
535.30736915853493
 40
1.7954019350664954
 50
85.096694946289063
 51
86.93878173828125
  0
ARC
  8
_1-1_
  6
CONTINUOUS
 62
    7
 10
383.54704558619204
 20
535.22294357476551
 40
1.8801374848514909
 50
83.337554931640625
 51
85.096603393554688
  0
ARC
  8
_1-1_
  6
CONTINUOUS
 62
    7
 10
383.53628460504837
 20
535.13099405296066
 40
1.972717703769566
 50
81.660552978515625
 51
83.337356567382813
  0
ARC
  8
_1-1_
  6
CONTINUOUS
 62
    7
 10
383.52167416723546
 20
535.03147684929456
 40
2.0733233768507322
 50
80.064514160156236
 51
81.660354614257798
  0
ARC
  8
_1-1_
  6
CONTINUOUS
 62
    7
 10
383.50290806597258
 20
534.92421698846408
 40
2.1822179922956293
 50
78.547897338867188
 51
80.064407348632812
  0
ARC
  8
_1-1_
  6
CONTINUOUS
 62
    7
 10
383.47950511917645
 20
534.80882077603724
 40
2.2999286973798596
 50
77.10888671875
 51
78.547897338867188
  0
ARC
  8
_1-1_
  6
CONTINUOUS
 62
    7
 10
383.47526196807507
 20
534.78428048977059
 40
2.3248114157827664
 50
75.620895385742188
 51
77.10888671875
  0
ARC
  8
_1-1_
  6
CONTINUOUS
 62
    7
 10
383.45789566923742
 20
534.70536662805034
 40
2.4055556832133114
 50
74.050277709960938
 51
75.620895385742188
  0
ARC
  8
_1-1_
  6
CONTINUOUS
 62
    7
 10
383.40492189620903
 20
534.51473103526939
 40
2.6034166965935679
 50
72.534393310546875
 51
74.050399780273438
  0
ARC
  8
_1-1_
  6
CONTINUOUS
 62
    7
 10
383.37591973971212
 20
534.42251905050978
 40
2.7000652621841796
 50
71.072906494140611
 51
72.534469604492187
  0
ARC
  8
_1-1_
  6
CONTINUOUS
 62
    7
 10
383.34276191976528
 20
534.32580145169402
 40
2.8023466997165016
 50
69.664947509765625
 51
71.072998046875
  0
ARC
  8
_1-1_
  6
CONTINUOUS
 62
    7
 10
383.30531720489148
 20
534.22475321412537
 40
2.9101147407730572
 50
68.309417724609375
 51
69.66510009765625
  0
ARC
  8
_1-1_
  6
CONTINUOUS
 62
    7
 10
383.26743505175966
 20
534.12947916156077
 40
3.0126068663412999
 50
67.000015258789062
 51
68.309417724609375
  0
ARC
  8
_1-1_
  6
CONTINUOUS
 62
    7
 10
383.49223457248058
 20
534.62339069852499
 40
2.4701523274528472
 50
64.75579833984375
 51
67.000015258789062
  0
ARC
  8
_1-1_
  6
CONTINUOUS
 62
    7
 10
415.07645787419506
 20
534.61468567719328
 40
2.4794318282466135
 50
113.07763671875001
 51
115.23965454101562
  0
ARC
  8
_1-1_
  6
CONTINUOUS
 62
    7
 10
415.29928892275535
 20
534.12619837462671
 40
3.0161504579787084
 50
111.81301879882813
 51
113.07763671875001
  0
ARC
  8
_1-1_
  6
CONTINUOUS
 62
    7
 10
415.26486253186079
 20
534.21219873612449
 40
2.9235003514639657
 50
110.50804138183594
 51
111.81288146972655
  0
ARC
  8
_1-1_
  6
CONTINUOUS
 62
    7
 10
415.22829269350268
 20
534.30992244293327
 40
2.8191617579994057
 50
109.15463256835937
 51
110.50796508789063
  0
ARC
  8
_1-1_
  6
CONTINUOUS
 62
    7
 10
415.19579103094259
 20
534.40344674246649
 40
2.7201503423190019
 50
107.75181579589844
 51
109.15455627441405
  0
ARC
  8
_1-1_
  6
CONTINUOUS
 62
    7
 10
415.16722631270352
 20
534.49268414707251
 40
2.626444061635544
 50
106.29878234863281
 51
107.75172424316405
  0
ARC
  8
_1-1_
  6
CONTINUOUS
 62
    7
 10
415.11608978035827
 20
534.67207757662618
 40
2.4399333749268504
 50
104.79501342773436
 51
106.2987823486328
  0
ARC
  8
_1-1_
  6
CONTINUOUS
 62
    7
 10
415.09850476239166
 20
534.74819183349609
 40
2.3618743974269583
 50
103.35917663574217
 51
104.79501342773436
  0
ARC
  8
_1-1_
  6
CONTINUOUS
 62
    7
 10
415.09251185825889
 20
534.77833132946353
 40
2.3311282976253613
 50
101.96034240722656
 51
103.35917663574219
  0
ARC
  8
_1-1_
  6
CONTINUOUS
 62
    7
 10
415.0688027046823
 20
534.8904030111305
 40
2.2166100374520052
 50
100.48941040039062
 51
101.96041870117187
  0
ARC
  8
_1-1_
  6
CONTINUOUS
 62
    7
 10
415.04951167751005
 20
534.99451331650425
 40
2.1107175129260796
 50
98.94500732421875
 51
100.48956298828126
  0
ARC
  8
_1-1_
  6
CONTINUOUS
 62
    7
 10
415.03428882613605
 20
535.09127465914571
 40
2.0127602209225586
 50
97.325759887695313
 51
98.945159912109375
  0
ARC
  8
_1-1_
  6
CONTINUOUS
 62
    7
 10
415.02278419995406
 20
535.18068703905487
 40
1.9226207707839582
 50
95.630676269531236
 51
97.325790405273423
  0
ARC
  8
_1-1_
  6
CONTINUOUS
 62
    7
 10
415.01469159218334
 20
535.26279420005767
 40
1.8400954803214571
 50
93.859222412109375
 51
95.6304931640625
  0
ARC
  8
_1-1_
  6
CONTINUOUS
 62
    7
 10
415.00847996892162
 20
535.36034293156331
 40
1.74236750165468
 50
92.011383056640625
 51
93.859222412109375
  0
ARC
  8
_1-1_
  6
CONTINUOUS
 62
    7
 10
415.00576785172268
 20
535.484619140625
 40
1.6180454982753887
 50
90.138259887695312
 51
92.011383056640611
  0
ARC
  8
_1-1_
  6
CONTINUOUS
 62
    7
 10
415.00699267884471
 20
535.50229164624307
 40
1.6003788023841885
 50
88.336776733398438
 51
90.138259887695327
  0
ARC
  8
_1-1_
  6
CONTINUOUS
 62
    7
 10
415.0101422343015
 20
535.61042638358924
 40
1.4922175795185058
 50
86.404525756835938
 51
88.336669921875
  0
ARC
  8
_1-1_
  6
CONTINUOUS
 62
    7
 10
415.01609139460857
 20
535.70495679111548
 40
1.3975125384376774
 50
84.3416748046875
 51
86.404693603515625
  0
ARC
  8
_1-1_
  6
CONTINUOUS
 62
    7
 10
415.02462144063713
 20
535.79095715261337
 40
1.3110796940372715
 50
82.143295288085938
 51
84.341888427734375
  0
ARC
  8
_1-1_
  6
CONTINUOUS
 62
    7
 10
415.03516370265174
 20
535.8675963353927
 40
1.2337201051270179
 50
79.806961059570298
 51
82.143234252929673
  0
ARC
  8
_1-1_
  6
CONTINUOUS
 62
    7
 10
415.04732448622065
 20
535.93518054623394
 40
1.165021451974007
 50
77.331436157226563
 51
79.806228637695313
  0
ARC
  8
_1-1_
  6
CONTINUOUS
 62
    7
 10
415.06088507221477
 20
535.99545953816892
 40
1.1032675583505263
 50
74.717376708984375
 51
77.331436157226563
  0
ARC
  8
_1-1_
  6
CONTINUOUS
 62
    7
 10
415.11972051789854
 20
536.19650616148715
 40
0.8938322875030252
 50
71.965957641601563
 51
74.717376708984361
  0
ARC
  8
_1-1_
  6
CONTINUOUS
 62
    7
 10
415.03166419658885
 20
535.92310725031666
 40
1.1810142630315654
 50
69.972488403320313
 51
71.965957641601563
  0
ARC
  8
_1-1_
  6
CONTINUOUS
 62
    7
 10
415.13516208840144
 20
536.20700467967617
 40
0.8788580582638965
 50
67.29388427734375
 51
69.972488403320313
  0
ARC
  8
_1-1_
  6
CONTINUOUS
 62
    7
 10
415.10204801228053
 20
536.12052313609468
 40
0.9714397296136869
 50
64.533233642578125
 51
67.29376220703125
  0
ARC
  8
_1-1_
  6
CONTINUOUS
 62
    7
 10
415.11661470626763
 20
536.15096883884257
 40
0.9376755621442463
 50
61.67608642578125
 51
64.533233642578125
  0
ARC
  8
_1-1_
  6
CONTINUOUS
 62
    7
 10
415.13433095571145
 20
536.18382045200883
 40
0.9003557563978732
 50
58.706069946289063
 51
61.67608642578125
  0
ARC
  8
_1-1_
  6
CONTINUOUS
 62
    7
 10
415.15475932235415
 20
536.21724073491032
 40
0.861181964285125
 50
55.608367919921882
 51
58.706069946289063
  0
ARC
  8
_1-1_
  6
CONTINUOUS
 62
    7
 10
415.17719990498307
 20
536.24996111659925
 40
0.821501529815114
 50
52.369384765624993
 51
55.608367919921868
  0
ARC
  8
_1-1_
  6
CONTINUOUS
 62
    7
 10
415.2940396636609
 20
536.39431574169726
 40
0.6358386787611085
 50
48.976104736328132
 51
52.369384765625007
  0
ARC
  8
_1-1_
  6
CONTINUOUS
 62
    7
 10
415.17256305944954
 20
536.25026732337983
 40
0.8242573054025531
 50
46.763671875000007
 51
48.976104736328132
  0
ARC
  8
_1-1_
  6
CONTINUOUS
 62
    7
 10
493.38525499616338
 20
470.18864782620574
 40
91.670436196345619
 50
133.1185302734375
 51
133.34811401367187
  0
ARC
  8
_1-1_
  6
CONTINUOUS
 62
    7
 10
493.38000573706893
 20
735.72136926835105
 40
91.662781026832846
 50
226.65185546874997
 51
226.88140869140622
  0
ARC
  8
_1-1_
  6
CONTINUOUS
 62
    7
 10
415.21582570315331
 20
669.61740574781504
 40
0.7596698883762691
 50
310.07690429687506
 51
313.23222351074219
  0
ARC
  8
_1-1_
  6
CONTINUOUS
 62
    7
 10
415.26451258125451
 20
669.55410843190077
 40
0.6799241677501946
 50
306.65824890136719
 51
310.076904296875
  0
ARC
  8
_1-1_
  6
CONTINUOUS
 62
    7
 10
415.25117071438927
 20
669.56154488228458
 40
0.6938615316187092
 50
304.34346008300781
 51
306.65824890136719
  0
ARC
  8
_1-1_
  6
CONTINUOUS
 62
    7
 10
415.04128783826189
 20
669.86871402696295
 40
1.0658543697885565
 50
302.83644104003906
 51
304.34346008300781
  0
ARC
  8
_1-1_
  6
CONTINUOUS
 62
    7
 10
415.25935080981156
 20
669.52558745748752
 40
0.6593437656817748
 50
299.90776062011719
 51
302.83644104003906
  0
ARC
  8
_1-1_
  6
CONTINUOUS
 62
    7
 10
415.12654455472131
 20
669.74518146293963
 40
0.9159073699625301
 50
297.092529296875
 51
299.90776062011719
  0
ARC
  8
_1-1_
  6
CONTINUOUS
 62
    7
 10
415.11136544717317
 20
669.77475228917183
 40
0.9491099589809947
 50
294.37153625488281
 51
297.09210205078125
  0
ARC
  8
_1-1_
  6
CONTINUOUS
 62
    7
 10
415.09994830864275
 20
669.79994873282521
 40
0.9768041579994915
 50
291.72984313964844
 51
294.37261962890625
  0
ARC
  8
_1-1_
  6
CONTINUOUS
 62
    7
 10
415.09128703113686
 20
669.82173315806733
 40
1.0002306000146166
 50
289.14999389648437
 51
291.72984313964844
  0
ARC
  8
_1-1_
  6
CONTINUOUS
 62
    7
 10
415.09456781807091
 20
669.80926616771796
 40
0.9873881133481801
 50
286.42485046386719
 51
289.14999389648437
  0
ARC
  8
_1-1_
  6
CONTINUOUS
 62
    7
 10
415.06753413373445
 20
669.89754120815678
 40
1.0796839973986379
 50
283.82772827148437
 51
286.42485046386719
  0
ARC
  8
_1-1_
  6
CONTINUOUS
 62
    7
 10
415.06657176956708
 20
669.89487283478365
 40
1.0773238812979584
 50
281.06417846679687
 51
283.82847595214844
  0
ARC
  8
_1-1_
  6
CONTINUOUS
 62
    7
 10
415.03914439079836
 20
670.0271979077902
 40
1.212457444619488
 50
278.75306701660156
 51
281.06417846679687
  0
ARC
  8
_1-1_
  6
CONTINUOUS
 62
    7
 10
415.0279897152227
 20
670.09963768329396
 40
1.2857404848898699
 50
276.57318115234375
 51
278.75283813476557
  0
ARC
  8
_1-1_
  6
CONTINUOUS
 62
    7
 10
415.01862853650408
 20
670.1810886869099
 40
1.3677516145250512
 50
274.52363586425781
 51
276.57301330566406
  0
ARC
  8
_1-1_
  6
CONTINUOUS
 62
    7
 10
415.01154203672655
 20
670.27058855447069
 40
1.4575206945761749
 50
272.60050964355469
 51
274.52374267578125
  0
ARC
  8
_1-1_
  6
CONTINUOUS
 62
    7
 10
415.00703642267058
 20
670.37006201431097
 40
1.5571135955657736
 50
270.80036926269531
 51
272.60050964355469
  0
ARC
  8
_1-1_
  6
CONTINUOUS
 62
    7
 10
415.0054179011164
 20
670.36227561332089
 40
1.5493266819526788
 50
268.86360168457031
 51
270.80036926269531
  0
ARC
  8
_1-1_
  6
CONTINUOUS
 62
    7
 10
415.00598657085163
 20
670.50308698852996
 40
1.6901501892386257
 50
266.93864440917969
 51
268.86360168457031
  0
ARC
  8
_1-1_
  6
CONTINUOUS
 62
    7
 10
415.01114834229452
 20
670.60824714572266
 40
1.7954019350664954
 50
265.09669494628906
 51
266.93878173828125
  0
ARC
  8
_1-1_
  6
CONTINUOUS
 62
    7
 10
415.01836607354949
 20
670.69267272949219
 40
1.8801374848514909
 50
263.33755493164063
 51
265.09660339355469
  0
ARC
  8
_1-1_
  6
CONTINUOUS
 62
    7
 10
415.02912705469316
 20
670.78462225129692
 40
1.972717703769566
 50
261.66055297851562
 51
263.33735656738281
  0
ARC
  8
_1-1_
  6
CONTINUOUS
 62
    7
 10
415.04373749250618
 20
670.88413945496313
 40
2.0733233768507322
 50
260.06451416015631
 51
261.66035461425787
  0
ARC
  8
_1-1_
  6
CONTINUOUS
 62
    7
 10
415.06254733759465
 20
670.99139931579339
 40
2.1822179922956293
 50
258.54789733886719
 51
260.06440734863281
  0
ARC
  8
_1-1_
  6
CONTINUOUS
 62
    7
 10
415.08590654056502
 20
671.10679552822035
 40
2.2999286973798596
 50
257.10888671875
 51
258.54789733886719
  0
ARC
  8
_1-1_
  6
CONTINUOUS
 62
    7
 10
415.09019343549227
 20
671.1313358144871
 40
2.3248114157827664
 50
255.62089538574219
 51
257.10888671875
  0
ARC
  8
_1-1_
  6
CONTINUOUS
 62
    7
 10
415.10751599050394
 20
671.21024967620724
 40
2.4055556832133114
 50
254.05027770996094
 51
255.62089538574219
  0
ARC
  8
_1-1_
  6
CONTINUOUS
 62
    7
 10
415.16048976353233
 20
671.40088526898819
 40
2.6034166965935679
 50
252.53439331054687
 51
254.05039978027344
  0
ARC
  8
_1-1_
  6
CONTINUOUS
 62
    7
 10
415.18949192002935
 20
671.49305350992211
 40
2.7000652621841796
 50
251.0729064941406
 51
252.53446960449216
  0
ARC
  8
_1-1_
  6
CONTINUOUS
 62
    7
 10
415.22264973997608
 20
671.58981485256345
 40
2.8023466997165016
 50
249.66494750976565
 51
251.07299804687503
  0
ARC
  8
_1-1_
  6
CONTINUOUS
 62
    7
 10
415.26009445484988
 20
671.6908630901321
 40
2.9101147407730572
 50
248.30941772460937
 51
249.66510009765625
  0
ARC
  8
_1-1_
  6
CONTINUOUS
 62
    7
 10
415.29797660798181
 20
671.786093398871
 40
3.0126068663412999
 50
247.00001525878906
 51
248.30941772460937
  0
ARC
  8
_1-1_
  6
CONTINUOUS
 62
    7
 10
415.07317708726089
 20
671.29222560573271
 40
2.4701523274528472
 50
244.75579833984375
 51
247.00001525878906
  0
ARC
  8
_1-1_
  6
CONTINUOUS
 62
    7
 10
383.48895378554641
 20
671.30093062706442
 40
2.4794318282466135
 50
293.07763671875
 51
295.23965454101562
  0
ARC
  8
_1-1_
  6
CONTINUOUS
 62
    7
 10
383.26616648081188
 20
671.78941792963087
 40
3.0161504579787084
 50
291.81301879882813
 51
293.07763671875
  0
ARC
  8
_1-1_
  6
CONTINUOUS
 62
    7
 10
383.30059287170639
 20
671.70341756813309
 40
2.9235003514639657
 50
290.50804138183594
 51
291.81288146972656
  0
ARC
  8
_1-1_
  6
CONTINUOUS
 62
    7
 10
383.33711896623879
 20
671.60569386132443
 40
2.8191617579994057
 50
289.15463256835937
 51
290.50796508789062
  0
ARC
  8
_1-1_
  6
CONTINUOUS
 62
    7
 10
383.36962062879877
 20
671.5121695617911
 40
2.7201505131933219
 50
287.75181579589844
 51
289.15455627441406
  0
ARC
  8
_1-1_
  6
CONTINUOUS
 62
    7
 10
383.39818534703795
 20
671.42288841335926
 40
2.626444061635544
 50
286.29878234863281
 51
287.75172424316406
  0
ARC
  8
_1-1_
  6
CONTINUOUS
 62
    7
 10
383.44932187938326
 20
671.2435387276314
 40
2.4399333749268504
 50
284.79501342773437
 51
286.29878234863281
  0
ARC
  8
_1-1_
  6
CONTINUOUS
 62
    7
 10
383.4669068973497
 20
671.16742447076149
 40
2.3618743974269583
 50
283.35917663574219
 51
284.79501342773437
  0
ARC
  8
_1-1_
  6
CONTINUOUS
 62
    7
 10
383.47289980148247
 20
671.13728497479417
 40
2.3311282976253613
 50
281.96034240722656
 51
283.35917663574219
  0
ARC
  8
_1-1_
  6
CONTINUOUS
 62
    7
 10
383.49660895505934
 20
671.02521329312708
 40
2.2166100374520052
 50
280.48941040039062
 51
281.96041870117187
  0
ARC
  8
_1-1_
  6
CONTINUOUS
 62
    7
 10
383.51589998223147
 20
670.92110298775333
 40
2.1107175129260796
 50
278.94500732421875
 51
280.48956298828125
  0
ARC
  8
_1-1_
  6
CONTINUOUS
 62
    7
 10
383.53112283360531
 20
670.82434164511187
 40
2.0127602209225586
 50
277.32575988769531
 51
278.94515991210937
  0
ARC
  8
_1-1_
  6
CONTINUOUS
 62
    7
 10
383.54262745978747
 20
670.7349292652026
 40
1.9226207707839582
 50
275.63067626953125
 51
277.32579040527344
  0
ARC
  8
_1-1_
  6
CONTINUOUS
 62
    7
 10
383.55072006755819
 20
670.65282210419991
 40
1.8400954803214571
 50
273.85922241210937
 51
275.6304931640625
  0
ARC
  8
_1-1_
  6
CONTINUOUS
 62
    7
 10
383.55693169081985
 20
670.55527337269427
 40
1.74236750165468
 50
272.01138305664062
 51
273.85922241210937
  0
ARC
  8
_1-1_
  6
CONTINUOUS
 62
    7
 10
383.55968755184449
 20
670.43099716363258
 40
1.6180454982753887
 50
270.13825988769531
 51
272.01138305664062
  0
ARC
  8
_1-1_
  6
CONTINUOUS
 62
    7
 10
383.55841898089665
 20
670.41332465801463
 40
1.6003788023841885
 50
268.33677673339844
 51
270.13825988769531
  0
ARC
  8
_1-1_
  6
CONTINUOUS
 62
    7
 10
383.55526942544003
 20
670.30518992066845
 40
1.4922175795185058
 50
266.40452575683594
 51
268.336669921875
  0
ARC
  8
_1-1_
  6
CONTINUOUS
 62
    7
 10
383.54932026513296
 20
670.2106595131421
 40
1.3975125384376774
 50
264.3416748046875
 51
266.40469360351562
  0
ARC
  8
_1-1_
  6
CONTINUOUS
 62
    7
 10
383.54083396293021
 20
670.12465915164421
 40
1.3110796940372715
 50
262.14329528808594
 51
264.34188842773437
  0
ARC
  8
_1-1_
  6
CONTINUOUS
 62
    7
 10
383.53024795708961
 20
670.04801996886499
 40
1.2337201051270179
 50
259.80696105957031
 51
262.14323425292969
  0
ARC
  8
_1-1_
  6
CONTINUOUS
 62
    7
 10
383.51808717352071
 20
669.98039201419783
 40
1.165021451974007
 50
257.33143615722656
 51
259.80622863769531
  0
ARC
  8
_1-1_
  6
CONTINUOUS
 62
    7
 10
383.50457033135257
 20
669.92015676608867
 40
1.1032675583505263
 50
254.71737670898437
 51
257.33143615722656
  0
ARC
  8
_1-1_
  6
CONTINUOUS
 62
    7
 10
383.44569114184281
 20
669.71911014277043
 40
0.8938322875030252
 50
251.96595764160156
 51
254.71737670898437
  0
ARC
  8
_1-1_
  6
CONTINUOUS
 62
    7
 10
383.53374746315268
 20
669.99246531011511
 40
1.1810142630315654
 50
249.97248840332031
 51
251.96595764160156
  0
ARC
  8
_1-1_
  6
CONTINUOUS
 62
    7
 10
383.43024957133991
 20
669.70861162458152
 40
0.8788580582638965
 50
247.29388427734375
 51
249.97248840332031
  0
ARC
  8
_1-1_
  6
CONTINUOUS
 62
    7
 10
383.46336364746094
 20
669.79509316816291
 40
0.9714397296136869
 50
244.5332336425781
 51
247.29376220703119
  0
ARC
  8
_1-1_
  6
CONTINUOUS
 62
    7
 10
383.44884069729943
 20
669.76464746541501
 40
0.9376755621442463
 50
241.67608642578131
 51
244.53323364257818
  0
ARC
  8
_1-1_
  6
CONTINUOUS
 62
    7
 10
383.43108070402991
 20
669.73179585224875
 40
0.9003557563978732
 50
238.70606994628906
 51
241.67608642578125
  0
ARC
  8
_1-1_
  6
CONTINUOUS
 62
    7
 10
383.41069608121302
 20
669.69837556934726
 40
0.861181964285125
 50
235.60836791992187
 51
238.70606994628906
  0
ARC
  8
_1-1_
  6
CONTINUOUS
 62
    7
 10
383.38821175475829
 20
669.66565518765833
 40
0.821501529815114
 50
232.369384765625
 51
235.60836791992187
  0
ARC
  8
_1-1_
  6
CONTINUOUS
 62
    7
 10
383.27137199608046
 20
669.52130056256021
 40
0.6358386787611085
 50
228.97610473632812
 51
232.369384765625
  0
ARC
  8
_1-1_
  6
CONTINUOUS
 62
    7
 10
383.39284860029181
 20
669.66534898087787
 40
0.8242573054025531
 50
226.763671875
 51
228.9761047363281
  0
ARC
  8
_1-1_
  6
CONTINUOUS
 62
    7
 10
399.28270582987068
 20
603.96815929633772
 40
25.000001067820662
 50
28.685394287109375
 51
151.31459045410156
  0
ARC
  8
_1-1_
  6
CONTINUOUS
 62
    7
 10
399.28270582987068
 20
603.96815929633772
 40
25.000001067820662
 50
208.68539428710937
 51
331.31459045410156
  0
ARC
  8
_1-1_
  6
CONTINUOUS
 62
    7
 10
903.04850191683374
 20
663.05701296301879
 40
9.7981952585308711
 50
118.8758544921875
 51
120.16337585449219
  0
ARC
  8
_1-1_
  6
CONTINUOUS
 62
    7
 10
903.6595156754305
 20
661.94434501029355
 40
11.067246704948454
 50
120.16337585449219
 51
120.98423767089844
  0
ARC
  8
_1-1_
  6
CONTINUOUS
 62
    7
 10
905.27375033463284
 20
659.25619942801336
 40
14.20279320142444
 50
120.98423767089844
 51
121.62388610839844
  0
ARC
  8
_1-1_
  6
CONTINUOUS
 62
    7
 10
902.98174883868239
 20
662.92783744546898
 40
9.8746000017438611
 50
121.62388610839844
 51
122.850830078125
  0
ARC
  8
_1-1_
  6
CONTINUOUS
 62
    7
 10
905.19037460268225
 20
659.44237315056398
 40
14.000763709020429
 50
122.850830078125
 51
124.00502014160155
  0
ARC
  8
_1-1_
  6
CONTINUOUS
 62
    7
 10
905.69019155612773
 20
658.70148397320474
 40
14.894451436849174
 50
124.00489807128905
 51
125.09001159667969
  0
ARC
  8
_1-1_
  6
CONTINUOUS
 62
    7
 10
905.02336067582644
 20
659.61747968519046
 40
13.761601176501239
 50
125.0899658203125
 51
126.10581970214844
  0
ARC
  8
_1-1_
  6
CONTINUOUS
 62
    7
 10
906.89472154300643
 20
657.02115239323791
 40
16.962032069570768
 50
126.10581970214844
 51
126.80853271484376
  0
ARC
  8
_1-1_
  6
CONTINUOUS
 62
    7
 10
906.96961097275425
 20
656.92106651983659
 40
17.087038253725265
 50
126.80853271484376
 51
127.506103515625
  0
ARC
  8
_1-1_
  6
CONTINUOUS
 62
    7
 10
907.3983879531213
 20
656.36070811150148
 40
17.792620695695913
 50
127.506103515625
 51
128.18292236328125
  0
ARC
  8
_1-1_
  6
CONTINUOUS
 62
    7
 10
905.07296617426914
 20
659.23253401826241
 40
14.097732834834389
 50
128.18292236328125
 51
129.46414184570312
  0
ARC
  8
_1-1_
  6
CONTINUOUS
 62
    7
 10
915.18513889386384
 20
646.94983640692863
 40
30.0074907711574
 50
129.46414184570312
 51
130.06608581542969
  0
ARC
  8
_1-1_
  6
CONTINUOUS
 62
    7
 10
906.04714117455205
 20
657.81470913684507
 40
15.810691840860374
 50
130.06608581542969
 51
131.20846557617187
  0
ARC
  8
_1-1_
  6
CONTINUOUS
 62
    7
 10
917.96357173256888
 20
644.20670483563401
 40
33.898826685651386
 50
131.20848083496094
 51
131.74125671386722
  0
ARC
  8
_1-1_
  6
CONTINUOUS
 62
    7
 10
907.35394422612126
 20
656.09741402408781
 40
17.962926345442252
 50
131.74130249023437
 51
132.74664306640625
  0
ARC
  8
_1-1_
  6
CONTINUOUS
 62
    7
 10
914.55234071002496
 20
648.25125896792611
 40
28.61080235956258
 50
132.74664306640625
 51
133.32501220703122
  0
ARC
  8
_1-1_
  6
CONTINUOUS
 62
    7
 10
892.40064230664814
 20
650.80594213772929
 40
25.114106837386785
 50
46.680587768554695
 51
47.940048217773445
  0
ARC
  8
_1-1_
  6
CONTINUOUS
 62
    7
 10
894.80515292252346
 20
653.48468279746498
 40
21.514454753242404
 50
47.940048217773438
 51
49.459503173828125
  0
ARC
  8
_1-1_
  6
CONTINUOUS
 62
    7
 10
899.07210066511823
 20
658.60104814919725
 40
14.85284012256902
 50
49.459503173828132
 51
51.163894653320312
  0
ARC
  8
_1-1_
  6
CONTINUOUS
 62
    7
 10
891.3554273332868
 20
649.01922557344756
 40
27.155606580977274
 50
51.163894653320312
 51
52.087127685546875
  0
ARC
  8
_1-1_
  6
CONTINUOUS
 62
    7
 10
900.09019446649131
 20
660.23426762879126
 40
12.940381931061911
 50
52.087127685546868
 51
54.024368286132805
  0
ARC
  8
_1-1_
  6
CONTINUOUS
 62
    7
 10
900.82316601138314
 20
661.47138676588145
 40
11.50867385293526
 50
54.024368286132813
 51
55.87799072265625
  0
ARC
  8
_1-1_
  6
CONTINUOUS
 62
    7
 10
895.44197553833465
 20
653.53004514480642
 40
21.101450156060885
 50
55.87799072265625
 51
56.888946533203118
  0
ARC
  8
_1-1_
  6
CONTINUOUS
 62
    7
 10
901.59874404259176
 20
662.97044393178578
 40
9.8308910343177516
 50
56.889007568359382
 51
59.058578491210937
  0
ARC
  8
_1-1_
  6
CONTINUOUS
 62
    7
 10
900.41818567224436
 20
661.12187359784105
 40
12.023322697311754
 50
59.058639526367188
 51
60.241165161132813
  0
ARC
  8
_1-1_
  6
CONTINUOUS
 62
    7
 10
900.62693120890128
 20
661.48700331168743
 40
11.602766822203705
 50
60.24116516113282
 51
61.466598510742202
  0
ARC
  8
_1-1_
  6
CONTINUOUS
 62
    7
 10
900.86122313981809
 20
661.91779250804063
 40
11.112388966166373
 50
61.466537475585938
 51
62.746124267578125
  0
ARC
  8
_1-1_
  6
CONTINUOUS
 62
    7
 10
901.59874404259176
 20
663.38727884771276
 40
9.4682834254268506
 50
62.746124267578125
 51
64.456192016601562
  0
ARC
  8
_1-1_
  6
CONTINUOUS
 62
    7
 10
901.95639356222841
 20
664.24492029609826
 40
8.5402752487815938
 50
64.456192016601562
 51
66.9842529296875
  0
ARC
  8
_1-1_
  6
CONTINUOUS
 62
    7
 10
902.54772259922095
 20
665.8531183073419
 40
6.828891020483951
 50
66.9842529296875
 51
69.731643676757812
  0
ARC
  8
_1-1_
  6
CONTINUOUS
 62
    7
 10
900.45318073287433
 20
660.18120636811113
 40
12.875181758725965
 50
69.731643676757812
 51
71.188873291015625
  0
ARC
  8
_1-1_
  6
CONTINUOUS
 62
    7
 10
902.63407291132512
 20
666.58416512389886
 40
6.1109871730841263
 50
71.18902587890625
 51
74.254348754882813
  0
ARC
  8
_1-1_
  6
CONTINUOUS
 62
    7
 10
901.29979873716138
 20
661.87960414812824
 40
11.001116976314529
 50
74.254348754882813
 51
75.878707885742188
  0
ARC
  8
_1-1_
  6
CONTINUOUS
 62
    7
 10
902.57475628355746
 20
666.94750134088827
 40
5.7752785995660139
 50
75.878707885742173
 51
78.972335815429673
  0
ARC
  8
_1-1_
  6
CONTINUOUS
 62
    7
 10
902.23040488696006
 20
665.42775334538635
 40
7.3328513344282342
 50
78.972335815429688
 51
82.147979736328125
  0
ARC
  8
_1-1_
  6
CONTINUOUS
 62
    7
 10
902.25962576258598
 20
665.63956094984837
 40
7.1190123760562143
 50
82.147903442382812
 51
85.4185791015625
  0
ARC
  8
_1-1_
  6
CONTINUOUS
 62
    7
 10
902.33267795165057
 20
666.94876991183594
 40
5.808154818634268
 50
85.418960571289063
 51
88.80023193359375
  0
ARC
  8
_1-1_
  6
CONTINUOUS
 62
    7
 10
902.28219757669206
 20
664.53752274678936
 40
8.2199515154923244
 50
88.800231933593764
 51
91.189834594726577
  0
ARC
  8
_1-1_
  6
CONTINUOUS
 62
    7
 10
902.19952174595414
 20
667.5993718327702
 40
5.1570539446871253
 50
91.189743041992188
 51
94.575759887695327
  0
ARC
  8
_1-1_
  6
CONTINUOUS
 62
    7
 10
902.6344228619314
 20
662.16582000025437
 40
10.607950887624822
 50
94.575759887695298
 51
96.222396850585923
  0
ARC
  8
_1-1_
  6
CONTINUOUS
 62
    7
 10
902.07100238579119
 20
667.33279695842259
 40
5.4103529096570249
 50
96.22222900390625
 51
99.450790405273437
  0
ARC
  8
_1-1_
  6
CONTINUOUS
 62
    7
 10
903.00335828862126
 20
661.73179376079304
 40
11.088450841001563
 50
99.450439453125
 51
101.026123046875
  0
ARC
  8
_1-1_
  6
CONTINUOUS
 62
    7
 10
901.95875572882096
 20
667.09277458632766
 40
5.6266292193221297
 50
101.02622985839844
 51
104.13067626953126
  0
ARC
  8
_1-1_
  6
CONTINUOUS
 62
    7
 10
901.92008618682507
 20
666.81522001170731
 40
5.8863366547698686
 50
104.13067626953126
 51
107.31581115722656
  0
ARC
  8
_1-1_
  6
CONTINUOUS
 62
    7
 10
903.88663361891815
 20
660.50749156465849
 40
12.493514144742811
 50
107.31581115722655
 51
108.81680297851561
  0
ARC
  8
_1-1_
  6
CONTINUOUS
 62
    7
 10
901.97704064800007
 20
666.11076944122897
 40
6.5737954829190226
 50
108.81680297851563
 51
111.6728515625
  0
ARC
  8
_1-1_
  6
CONTINUOUS
 62
    7
 10
904.73167684547684
 20
659.17890408784729
 40
14.032934558897864
 50
111.67276000976564
 51
113.01069641113283
  0
ARC
  8
_1-1_
  6
CONTINUOUS
 62
    7
 10
902.13521832204697
 20
665.2927598990068
 40
7.3905829320082796
 50
113.01095581054687
 51
115.55123901367189
  0
ARC
  8
_1-1_
  6
CONTINUOUS
 62
    7
 10
905.3857345286483
 20
658.47279125198895
 40
14.945572932254391
 50
115.55061340332031
 51
116.73991394042969
  0
ARC
  8
_1-1_
  6
CONTINUOUS
 62
    7
 10
902.49330527994164
 20
664.21377469213769
 40
8.5171074250490051
 50
116.73991394042969
 51
118.82670593261719
  0
ARC
  8
_1-1_
  6
CONTINUOUS
 62
    7
 10
870.96161831299764
 20
621.99144665338815
 40
52.057492981546176
 50
64.769668579101563
 51
66.152282714843764
  0
ARC
  8
_1-1_
  6
CONTINUOUS
 62
    7
 10
873.36997838554225
 20
627.49153284492638
 40
46.053270133765963
 50
66.15228271484375
 51
67.767410278320313
  0
ARC
  8
_1-1_
  6
CONTINUOUS
 62
    7
 10
875.76862732876225
 20
633.58115457659983
 40
39.508780963632589
 50
67.767410278320313
 51
69.529098510742187
  0
ARC
  8
_1-1_
  6
CONTINUOUS
 62
    7
 10
874.5760831501492
 20
630.47753013699207
 40
42.833483964780122
 50
69.529098510742187
 51
71.069046020507813
  0
ARC
  8
_1-1_
  6
CONTINUOUS
 62
    7
 10
876.81322988856255
 20
637.00017200013383
 40
35.937849435106664
 50
71.069046020507813
 51
72.9044189453125
  0
ARC
  8
_1-1_
  6
CONTINUOUS
 62
    7
 10
879.12447866785942
 20
645.07361997508622
 40
27.541697789343168
 50
72.9044189453125
 51
74.873519897460938
  0
ARC
  8
_1-1_
  6
CONTINUOUS
 62
    7
 10
874.61037830956661
 20
628.44449208970229
 40
44.772636825973919
 50
74.873519897460923
 51
76.038055419921861
  0
ARC
  8
_1-1_
  6
CONTINUOUS
 62
    7
 10
879.1913192336624
 20
646.86961023043477
 40
25.78656700126913
 50
76.038055419921875
 51
78.05987548828125
  0
ARC
  8
_1-1_
  6
CONTINUOUS
 62
    7
 10
878.0376195723486
 20
641.9696455848723
 40
30.819203936455331
 50
78.05987548828125
 51
80.1790771484375
  0
ARC
  8
_1-1_
  6
CONTINUOUS
 62
    7
 10
878.73157162463804
 20
646.32346856548054
 40
26.410829671101219
 50
80.1790771484375
 51
82.396682739257813
  0
ARC
  8
_1-1_
  6
CONTINUOUS
 62
    7
 10
878.02668361590167
 20
641.10548630644439
 40
31.676216567345104
 50
82.396682739257813
 51
84.216018676757813
  0
ARC
  8
_1-1_
  6
CONTINUOUS
 62
    7
 10
878.63900968927214
 20
647.14996440990546
 40
25.600786973150541
 50
84.216018676757813
 51
86.467010498046875
  0
ARC
  8
_1-1_
  6
CONTINUOUS
 62
    7
 10
878.53026253836492
 20
646.77193026745169
 40
25.984783945856865
 50
86.467010498046875
 51
88.75543212890625
  0
ARC
  8
_1-1_
  6
CONTINUOUS
 62
    7
 10
878.45939754058941
 20
643.50995317849413
 40
29.247545689689606
 50
88.75543212890625
 51
90.788726806640611
  0
ARC
  8
_1-1_
  6
CONTINUOUS
 62
    7
 10
878.41285410995181
 20
646.88614539658238
 40
25.871033594875257
 50
90.788619995117188
 51
93.087356567382813
  0
ARC
  8
_1-1_
  6
CONTINUOUS
 62
    7
 10
878.49806708258541
 20
644.66330288920165
 40
28.095245830800998
 50
93.087356567382813
 51
95.345458984375
  0
ARC
  8
_1-1_
  6
CONTINUOUS
 62
    7
 10
878.52685051995354
 20
644.34196074496822
 40
28.417878417895107
 50
95.345458984375
 51
97.5831298828125
  0
ARC
  8
_1-1_
  6
CONTINUOUS
 62
    7
 10
878.60252733856555
 20
643.7106935950319
 40
29.053615640029022
 50
97.5831298828125
 51
99.80438232421875
  0
ARC
  8
_1-1_
  6
CONTINUOUS
 62
    7
 10
878.89543599603712
 20
641.97502607544402
 40
30.813785170035931
 50
99.80438232421875
 51
101.92469787597656
  0
ARC
  8
_1-1_
  6
CONTINUOUS
 62
    7
 10
879.18694485108358
 20
640.59429595829431
 40
32.224980127857457
 50
101.92469787597658
 51
103.9521942138672
  0
ARC
  8
_1-1_
  6
CONTINUOUS
 62
    7
 10
879.35535858036462
 20
639.84238333683675
 40
32.995314367949732
 50
103.95219421386719
 51
105.99449157714844
  0
ARC
  8
_1-1_
  6
CONTINUOUS
 62
    7
 10
880.26461774317909
 20
636.60328426876583
 40
36.359564521598074
 50
105.99449157714844
 51
107.90699768066406
  0
ARC
  8
_1-1_
  6
CONTINUOUS
 62
    7
 10
881.0871766432831
 20
634.05551262343704
 40
39.036831561202703
 50
107.90605163574219
 51
109.68829345703125
  0
ARC
  8
_1-1_
  6
CONTINUOUS
 62
    7
 10
881.56022237534683
 20
632.65964714256495
 40
40.51043255448802
 50
109.68829345703126
 51
111.47608947753908
  0
ARC
  8
_1-1_
  6
CONTINUOUS
 62
    7
 10
879.12027926058374
 20
638.33527730698745
 40
34.335578712257174
 50
111.47608947753906
 51
113.15507507324219
  0
ARC
  8
_1-1_
  6
CONTINUOUS
 62
    7
 10
892.12820575964486
 20
607.81280414478192
 40
67.514291803809201
 50
113.1550750732422
 51
113.93769836425783
  0
ARC
  8
_1-1_
  6
CONTINUOUS
 62
    7
 10
881.28297400750694
 20
632.24307468959262
 40
40.784952401194332
 50
113.9376983642578
 51
115.23321533203124
  0
ARC
  8
_1-1_
  6
CONTINUOUS
 62
    7
 10
844.86842623088353
 20
650.91245835352129
 40
24.968562927025161
 50
46.6822509765625
 51
48.062347412109375
  0
ARC
  8
_1-1_
  6
CONTINUOUS
 62
    7
 10
847.38824557153407
 20
653.73222910759523
 40
21.186983005420579
 50
48.062347412109375
 51
49.743270874023438
  0
ARC
  8
_1-1_
  6
CONTINUOUS
 62
    7
 10
851.63279647532579
 20
658.88468311560189
 40
14.511925350284944
 50
49.743270874023438
 51
51.643722534179688
  0
ARC
  8
_1-1_
  6
CONTINUOUS
 62
    7
 10
844.87866228611767
 20
650.36837264837902
 40
25.381422622783759
 50
51.643722534179688
 51
52.6781005859375
  0
ARC
  8
_1-1_
  6
CONTINUOUS
 62
    7
 10
852.93303795302688
 20
660.95328489325675
 40
12.080531419474186
 50
52.6781005859375
 51
54.733947753906257
  0
ARC
  8
_1-1_
  6
CONTINUOUS
 62
    7
 10
846.93707175236409
 20
652.49694721118817
 40
22.446924116620686
 50
54.73394775390625
 51
55.773208618164055
  0
ARC
  8
_1-1_
  6
CONTINUOUS
 62
    7
 10
853.73486227970784
 20
662.48965554255778
 40
10.361165993462198
 50
55.773208618164063
 51
58.024429321289063
  0
ARC
  8
_1-1_
  6
CONTINUOUS
 62
    7
 10
849.21437532284995
 20
655.24843385320833
 40
18.897593836066346
 50
58.024490356445305
 51
59.2587890625
  0
ARC
  8
_1-1_
  6
CONTINUOUS
 62
    7
 10
854.36538578460568
 20
663.9094926399614
 40
8.8205685969945549
 50
59.258880615234375
 51
61.902923583984375
  0
ARC
  8
_1-1_
  6
CONTINUOUS
 62
    7
 10
851.70786088037676
 20
658.98091953233404
 40
14.41992114869784
 50
61.902709960937493
 51
63.337005615234368
  0
ARC
  8
_1-1_
  6
CONTINUOUS
 62
    7
 10
854.48130692294194
 20
664.50418995153939
 40
8.2393888110819926
 50
63.337005615234368
 51
65.846939086914062
  0
ARC
  8
_1-1_
  6
CONTINUOUS
 62
    7
 10
854.06985249758679
 20
663.71317034982803
 40
9.1295332890219658
 50
65.846939086914077
 51
68.761642456054702
  0
ARC
  8
_1-1_
  6
CONTINUOUS
 62
    7
 10
854.97115028410803
 20
666.21662949963422
 40
6.4696168278174966
 50
68.761642456054687
 51
71.938201904296875
  0
ARC
  8
_1-1_
  6
CONTINUOUS
 62
    7
 10
854.42015305449127
 20
664.71989075649662
 40
8.063423803874425
 50
71.938201904296875
 51
73.637435913085938
  0
ARC
  8
_1-1_
  6
CONTINUOUS
 62
    7
 10
854.48961824984156
 20
664.95654485400576
 40
7.8167803936483313
 50
73.637435913085938
 51
75.3902587890625
  0
ARC
  8
_1-1_
  6
CONTINUOUS
 62
    7
 10
854.89004923109837
 20
666.64496904174325
 40
6.0819494747287051
 50
75.3902587890625
 51
78.366683959960923
  0
ARC
  8
_1-1_
  6
CONTINUOUS
 62
    7
 10
854.66826803435674
 20
665.82372245641284
 40
6.9310485741346497
 50
78.366683959960937
 51
81.831512451171889
  0
ARC
  8
_1-1_
  6
CONTINUOUS
 62
    7
 10
854.62732381341993
 20
665.6313808544262
 40
7.1272854271082338
 50
81.831512451171889
 51
85.412277221679702
  0
ARC
  8
_1-1_
  6
CONTINUOUS
 62
    7
 10
854.6993261506658
 20
666.96359906877785
 40
5.7935669362314881
 50
85.41265869140625
 51
89.128097534179688
  0
ARC
  8
_1-1_
  6
CONTINUOUS
 62
    7
 10
854.6436840042644
 20
666.96683611188621
 40
5.7911924666879724
 50
89.128097534179688
 51
91.74383544921875
  0
ARC
  8
_1-1_
  6
CONTINUOUS
 62
    7
 10
854.6558447878333
 20
665.87984578489795
 40
6.8780208048212943
 50
91.74383544921875
 51
93.59881591796875
  0
ARC
  8
_1-1_
  6
CONTINUOUS
 62
    7
 10
854.66258133700444
 20
665.77350454440898
 40
6.9845623100126106
 50
93.59881591796875
 51
95.425506591796875
  0
ARC
  8
_1-1_
  6
CONTINUOUS
 62
    7
 10
854.45549806572762
 20
667.36372384325421
 40
5.3819337763381281
 50
95.425506591796875
 51
98.982208251953125
  0
ARC
  8
_1-1_
  6
CONTINUOUS
 62
    7
 10
855.3422729020873
 20
661.75305326012563
 40
11.062242137879476
 50
98.981826782226563
 51
100.71261596679687
  0
ARC
  8
_1-1_
  6
CONTINUOUS
 62
    7
 10
854.33249042761361
 20
667.09084985799313
 40
5.6297774077842586
 50
100.71281433105467
 51
104.11257934570312
  0
ARC
  8
_1-1_
  6
CONTINUOUS
 62
    7
 10
854.79792473399027
 20
665.01231823188448
 40
7.7590337591281724
 50
104.11257934570312
 51
105.87483215332031
  0
ARC
  8
_1-1_
  6
CONTINUOUS
 62
    7
 10
854.86957712062986
 20
664.76035379534983
 40
8.0209895588716478
 50
105.87483215332031
 51
107.5795440673828
  0
ARC
  8
_1-1_
  6
CONTINUOUS
 62
    7
 10
854.96152664243482
 20
664.46923863473546
 40
8.3263043754349333
 50
107.57954406738281
 51
109.22512817382812
  0
ARC
  8
_1-1_
  6
CONTINUOUS
 62
    7
 10
854.35602460588723
 20
666.023981690867
 40
6.6588539851678386
 50
109.22512817382812
 51
112.31204223632812
  0
ARC
  8
_1-1_
  6
CONTINUOUS
 62
    7
 10
857.26297680475523
 20
658.93997531139701
 40
14.316137555022957
 50
112.31170654296875
 51
113.74789428710937
  0
ARC
  8
_1-1_
  6
CONTINUOUS
 62
    7
 10
854.55269684662676
 20
665.10028706554283
 40
7.5859326055151151
 50
113.74794006347655
 51
116.4578399658203
  0
ARC
  8
_1-1_
  6
CONTINUOUS
 62
    7
 10
856.01321570201264
 20
662.03222635630016
 40
10.983395258892457
 50
116.45783996582033
 51
117.86929321289063
  0
ARC
  8
_1-1_
  6
CONTINUOUS
 62
    7
 10
856.16955613537641
 20
661.73673681310697
 40
11.317691043537096
 50
117.86929321289063
 51
119.23907470703126
  0
ARC
  8
_1-1_
  6
CONTINUOUS
 62
    7
 10
856.43753081214925
 20
661.25686704422048
 40
11.867322645592413
 50
119.23907470703124
 51
120.55003356933594
  0
ARC
  8
_1-1_
  6
CONTINUOUS
 62
    7
 10
855.25426032460337
 20
663.12814042374896
 40
9.654367609834118
 50
120.55003356933594
 51
122.96730041503908
  0
ARC
  8
_1-1_
  6
CONTINUOUS
 62
    7
 10
861.55100907137944
 20
653.41976695999676
 40
21.225947818240606
 50
122.9671173095703
 51
124.06681823730467
  0
ARC
  8
_1-1_
  6
CONTINUOUS
 62
    7
 10
856.10787734101632
 20
661.46928706224355
 40
11.508790047472509
 50
124.06678771972656
 51
126.09490966796874
  0
ARC
  8
_1-1_
  6
CONTINUOUS
 62
    7
 10
859.37790329391885
 20
656.87010496279436
 40
17.151624645505631
 50
126.09490966796876
 51
127.1644744873047
  0
ARC
  8
_1-1_
  6
CONTINUOUS
 62
    7
 10
859.66783737123694
 20
656.48760895011037
 40
17.631595571989259
 50
127.1644744873047
 51
128.20491027832034
  0
ARC
  8
_1-1_
  6
CONTINUOUS
 62
    7
 10
860.25811655641064
 20
655.73648371751699
 40
18.586878707510163
 50
128.20491027832031
 51
129.19657897949219
  0
ARC
  8
_1-1_
  6
CONTINUOUS
 62
    7
 10
858.07722437795974
 20
658.28359920545893
 40
15.234600692181973
 50
129.19657897949222
 51
131.01121520996094
  0
ARC
  8
_1-1_
  6
CONTINUOUS
 62
    7
 10
870.24456952069261
 20
644.29218027122238
 40
33.776570894543269
 50
131.01123046875
 51
131.82963562011719
  0
ARC
  8
_1-1_
  6
CONTINUOUS
 62
    7
 10
860.03441063133437
 20
655.69973890385563
 40
18.467136819390255
 50
131.82974243164062
 51
133.32633972167969
  0
ARC
  8
_1-1_
  6
CONTINUOUS
 62
    7
 10
870.96161831299764
 20
583.92416965086943
 40
52.057492981546176
 50
293.84770202636719
 51
295.23031616210937
  0
ARC
  8
_1-1_
  6
CONTINUOUS
 62
    7
 10
873.36997838554225
 20
578.4240834593312
 40
46.053270133765963
 50
292.23257446289062
 51
293.84770202636719
  0
ARC
  8
_1-1_
  6
CONTINUOUS
 62
    7
 10
875.76862732876225
 20
572.33446172765775
 40
39.508780963632589
 50
290.47088623046875
 51
292.23257446289062
  0
ARC
  8
_1-1_
  6
CONTINUOUS
 62
    7
 10
874.5760831501492
 20
575.43808616726551
 40
42.833483964780122
 50
288.93093872070312
 51
290.47088623046875
  0
ARC
  8
_1-1_
  6
CONTINUOUS
 62
    7
 10
876.81322988856255
 20
568.91544430412375
 40
35.937849435106664
 50
287.09556579589844
 51
288.93093872070312
  0
ARC
  8
_1-1_
  6
CONTINUOUS
 62
    7
 10
879.12447866785942
 20
560.84199632917125
 40
27.541697789343168
 50
285.12646484375
 51
287.09556579589844
  0
ARC
  8
_1-1_
  6
CONTINUOUS
 62
    7
 10
874.61037830956661
 20
577.47112421455529
 40
44.772636825973919
 50
283.96192932128906
 51
285.12646484375
  0
ARC
  8
_1-1_
  6
CONTINUOUS
 62
    7
 10
879.1913192336624
 20
559.04600607382281
 40
25.78656700126913
 50
281.94010925292969
 51
283.96192932128906
  0
ARC
  8
_1-1_
  6
CONTINUOUS
 62
    7
 10
878.0376195723486
 20
563.94588323173377
 40
30.81913832071665
 50
279.82090759277344
 51
281.94010925292969
  0
ARC
  8
_1-1_
  6
CONTINUOUS
 62
    7
 10
878.73157162463804
 20
559.59214773877704
 40
26.410829671101219
 50
277.60330200195312
 51
279.82090759277344
  0
ARC
  8
_1-1_
  6
CONTINUOUS
 62
    7
 10
878.02668361590167
 20
564.81012999781308
 40
31.676216567345104
 50
275.78396606445312
 51
277.60330200195312
  0
ARC
  8
_1-1_
  6
CONTINUOUS
 62
    7
 10
878.63900968927214
 20
558.76565189435212
 40
25.600786973150541
 50
273.53297424316406
 51
275.78396606445312
  0
ARC
  8
_1-1_
  6
CONTINUOUS
 62
    7
 10
878.53026253836492
 20
559.14364229298008
 40
25.984783945856865
 50
271.24455261230469
 51
273.53297424316406
  0
ARC
  8
_1-1_
  6
CONTINUOUS
 62
    7
 10
878.45939754058941
 20
562.40898765652332
 40
29.250862018482103
 50
269.21136474609375
 51
271.24443054199219
  0
ARC
  8
_1-1_
  6
CONTINUOUS
 62
    7
 10
878.41285410995181
 20
559.0294709076752
 40
25.871033594875257
 50
266.91262817382812
 51
269.21136474609375
  0
ARC
  8
_1-1_
  6
CONTINUOUS
 62
    7
 10
878.49806708258541
 20
561.25231341505594
 40
28.095245830800998
 50
264.65452575683594
 51
266.91262817382812
  0
ARC
  8
_1-1_
  6
CONTINUOUS
 62
    7
 10
878.52685051995354
 20
561.57365555928936
 40
28.417878417895107
 50
262.41685485839844
 51
264.65452575683594
  0
ARC
  8
_1-1_
  6
CONTINUOUS
 62
    7
 10
878.60252733856555
 20
562.20492270922568
 40
29.053615640029022
 50
260.19560241699219
 51
262.41685485839844
  0
ARC
  8
_1-1_
  6
CONTINUOUS
 62
    7
 10
878.89543599603712
 20
563.9408089479424
 40
30.814006623153979
 50
258.07528686523437
 51
260.19560241699219
  0
ARC
  8
_1-1_
  6
CONTINUOUS
 62
    7
 10
879.18694485108358
 20
565.32132034596327
 40
32.224980127857457
 50
256.04779052734375
 51
258.07528686523437
  0
ARC
  8
_1-1_
  6
CONTINUOUS
 62
    7
 10
879.35535858036462
 20
566.07323296742084
 40
32.995314367949732
 50
254.0054931640625
 51
256.04779052734375
  0
ARC
  8
_1-1_
  6
CONTINUOUS
 62
    7
 10
880.27502877371649
 20
569.34645221960591
 40
36.395215739614713
 50
252.09393310546875
 51
254.00456237792969
  0
ARC
  8
_1-1_
  6
CONTINUOUS
 62
    7
 10
881.0871766432831
 20
571.86010368082054
 40
39.036831561202703
 50
250.31169128417972
 51
252.09393310546875
  0
ARC
  8
_1-1_
  6
CONTINUOUS
 62
    7
 10
881.56022237534683
 20
573.25596916169263
 40
40.51043255448802
 50
248.52389526367187
 51
250.31169128417969
  0
ARC
  8
_1-1_
  6
CONTINUOUS
 62
    7
 10
879.12027926058374
 20
567.58033899727013
 40
34.335578712257174
 50
246.84490966796869
 51
248.52389526367182
  0
ARC
  8
_1-1_
  6
CONTINUOUS
 62
    7
 10
892.12820575964486
 20
598.10281215947566
 40
67.514291803809201
 50
246.06228637695312
 51
246.84490966796875
  0
ARC
  8
_1-1_
  6
CONTINUOUS
 62
    7
 10
881.28297400750694
 20
573.67254161466496
 40
40.784952401194332
 50
244.76676940917969
 51
246.06228637695312
  0
ARC
  8
_1-1_
  6
CONTINUOUS
 62
    7
 10
903.0457023119834
 20
542.85230423032544
 40
9.7913274778822661
 50
239.85296630859375
 51
241.14443969726562
  0
ARC
  8
_1-1_
  6
CONTINUOUS
 62
    7
 10
903.65636611997388
 20
543.96523464600546
 40
11.060430870092972
 50
239.02964782714844
 51
239.85296630859375
  0
ARC
  8
_1-1_
  6
CONTINUOUS
 62
    7
 10
905.26928846440251
 20
546.65272407089878
 40
14.194770310376141
 50
238.38813781738281
 51
239.02964782714844
  0
ARC
  8
_1-1_
  6
CONTINUOUS
 62
    7
 10
902.97973662269612
 20
542.98344822003571
 40
9.8698531131486629
 50
237.1576843261719
 51
238.38813781738281
  0
ARC
  8
_1-1_
  6
CONTINUOUS
 62
    7
 10
905.18941223851493
 20
546.47175586361675
 40
13.99894423926659
 50
236.00047302246091
 51
237.15756225585935
  0
ARC
  8
_1-1_
  6
CONTINUOUS
 62
    7
 10
905.68905421665727
 20
547.21251380949866
 40
14.892473395726855
 50
234.91258239746094
 51
236.00042724609372
  0
ARC
  8
_1-1_
  6
CONTINUOUS
 62
    7
 10
905.01504934892682
 20
546.28654450523345
 40
13.747388534104042
 50
233.89424133300781
 51
234.91258239746094
  0
ARC
  8
_1-1_
  6
CONTINUOUS
 62
    7
 10
906.89454656770317
 20
548.89415770423921
 40
16.961658880057019
 50
233.19146728515625
 51
233.89424133300781
  0
ARC
  8
_1-1_
  6
CONTINUOUS
 62
    7
 10
906.97004841101204
 20
548.99516219798204
 40
17.087791467725538
 50
232.493896484375
 51
233.19146728515625
  0
ARC
  8
_1-1_
  6
CONTINUOUS
 62
    7
 10
907.39830046546956
 20
549.55482070510448
 40
17.792505868153221
 50
231.81706237792966
 51
232.49389648437497
  0
ARC
  8
_1-1_
  6
CONTINUOUS
 62
    7
 10
905.07296617426914
 20
546.68299479834354
 40
14.097656283139262
 50
230.53584289550781
 51
231.81706237792972
  0
ARC
  8
_1-1_
  6
CONTINUOUS
 62
    7
 10
915.18443899265117
 20
558.96486127698745
 40
30.006334293763146
 50
229.93388366699219
 51
230.53584289550781
  0
ARC
  8
_1-1_
  6
CONTINUOUS
 62
    7
 10
906.04687871159729
 20
548.10064470445786
 40
15.810351459215966
 50
228.79148864746097
 51
229.93389892578128
  0
ARC
  8
_1-1_
  6
CONTINUOUS
 62
    7
 10
917.95972227589959
 20
561.70458082987068
 40
33.893033362723685
 50
228.2586669921875
 51
228.7915344238281
  0
ARC
  8
_1-1_
  6
CONTINUOUS
 62
    7
 10
907.35403171377288
 20
549.81824602399547
 40
17.963002897137379
 50
227.25332641601562
 51
228.2586669921875
  0
ARC
  8
_1-1_
  6
CONTINUOUS
 62
    7
 10
914.55269066063124
 20
557.66466354311194
 40
28.611242531809566
 50
226.67497253417969
 51
227.25332641601562
  0
ARC
  8
_1-1_
  6
CONTINUOUS
 62
    7
 10
892.40064230664814
 20
555.10967416652841
 40
25.114109571375902
 50
312.0599365234375
 51
313.31939697265625
  0
ARC
  8
_1-1_
  6
CONTINUOUS
 62
    7
 10
894.80515292252346
 20
552.43093350679248
 40
21.514454753242404
 50
310.54048156738281
 51
312.0599365234375
  0
ARC
  8
_1-1_
  6
CONTINUOUS
 62
    7
 10
899.07210066511823
 20
547.31456815506033
 40
14.852838755574464
 50
308.83609008789062
 51
310.54048156738281
  0
ARC
  8
_1-1_
  6
CONTINUOUS
 62
    7
 10
891.3554273332868
 20
556.8963469869841
 40
27.155603846988157
 50
307.91285705566406
 51
308.83609008789062
  0
ARC
  8
_1-1_
  6
CONTINUOUS
 62
    7
 10
900.09019446649131
 20
545.68130493164062
 40
12.940379197072797
 50
305.97561645507812
 51
307.91285705566406
  0
ARC
  8
_1-1_
  6
CONTINUOUS
 62
    7
 10
900.82316601138314
 20
544.44422953837625
 40
11.508672485940705
 50
304.12199401855469
 51
305.97561645507812
  0
ARC
  8
_1-1_
  6
CONTINUOUS
 62
    7
 10
895.4434628284115
 20
552.38342771198757
 40
21.098876105312211
 50
303.11097717285156
 51
304.12205505371094
  0
ARC
  8
_1-1_
  6
CONTINUOUS
 62
    7
 10
901.5990065055463
 20
542.9446911903882
 40
9.830297758680512
 50
300.94134521484375
 51
303.11103820800781
  0
ARC
  8
_1-1_
  6
CONTINUOUS
 62
    7
 10
900.41818567224436
 20
544.79374270641665
 40
12.023325431300867
 50
299.75881958007812
 51
300.94134521484375
  0
ARC
  8
_1-1_
  6
CONTINUOUS
 62
    7
 10
900.62631879534035
 20
544.42975033204061
 40
11.604051797086207
 50
298.533447265625
 51
299.75875854492187
  0
ARC
  8
_1-1_
  6
CONTINUOUS
 62
    7
 10
900.86122313981809
 20
543.99782379621695
 40
11.112392383652763
 50
297.25386047363281
 51
298.533447265625
  0
ARC
  8
_1-1_
  6
CONTINUOUS
 62
    7
 10
901.59874404259176
 20
542.52833745654482
 40
9.4682861594159622
 50
295.54379272460937
 51
297.25386047363281
  0
ARC
  8
_1-1_
  6
CONTINUOUS
 62
    7
 10
901.95639356222841
 20
541.67069600815933
 40
8.5402752487815938
 50
293.0157470703125
 51
295.54379272460937
  0
ARC
  8
_1-1_
  6
CONTINUOUS
 62
    7
 10
902.54772259922095
 20
540.06249799691568
 40
6.8288889699921187
 50
290.26834106445312
 51
293.0157470703125
  0
ARC
  8
_1-1_
  6
CONTINUOUS
 62
    7
 10
900.45414309704154
 20
545.73178530659914
 40
12.872420429723142
 50
288.81095886230469
 51
290.26850891113281
  0
ARC
  8
_1-1_
  6
CONTINUOUS
 62
    7
 10
902.63407291132512
 20
539.33145118035861
 40
6.1109837555977364
 50
285.74563598632812
 51
288.81095886230469
  0
ARC
  8
_1-1_
  6
CONTINUOUS
 62
    7
 10
901.29979873716138
 20
544.03601215612935
 40
11.001108774347195
 50
284.12127685546875
 51
285.74563598632812
  0
ARC
  8
_1-1_
  6
CONTINUOUS
 62
    7
 10
902.57475628355746
 20
538.96811496336943
 40
5.7752772325714572
 50
281.02763366699219
 51
284.12127685546875
  0
ARC
  8
_1-1_
  6
CONTINUOUS
 62
    7
 10
902.23031739930843
 20
540.4881691656517
 40
7.3331746286406938
 50
277.85206604003906
 51
281.02757263183594
  0
ARC
  8
_1-1_
  6
CONTINUOUS
 62
    7
 10
902.25980073788901
 20
540.27443683285503
 40
7.1174041069612537
 50
274.58102416992187
 51
277.85244750976562
  0
ARC
  8
_1-1_
  6
CONTINUOUS
 62
    7
 10
902.33267795165057
 20
538.96684639242164
 40
5.8081623371043261
 50
271.19976806640625
 51
274.58102416992187
  0
ARC
  8
_1-1_
  6
CONTINUOUS
 62
    7
 10
902.28219757669206
 20
541.37861848337764
 40
8.2204907948446078
 50
268.81024169921875
 51
271.19969177246094
  0
ARC
  8
_1-1_
  6
CONTINUOUS
 62
    7
 10
902.19952174595414
 20
538.31624447148738
 40
5.1570505272007345
 50
265.42424011230469
 51
268.81024169921875
  0
ARC
  8
_1-1_
  6
CONTINUOUS
 62
    7
 10
902.63459783723442
 20
543.75185226381507
 40
10.610056742738113
 50
263.77775573730469
 51
265.424072265625
  0
ARC
  8
_1-1_
  6
CONTINUOUS
 62
    7
 10
902.07117736109421
 20
538.58391294147975
 40
5.4114687189632393
 50
260.54953002929687
 51
263.77742004394531
  0
ARC
  8
_1-1_
  6
CONTINUOUS
 62
    7
 10
903.00309582566661
 20
544.18242274103932
 40
11.087027116171642
 50
258.9737548828125
 51
260.54963684082031
  0
ARC
  8
_1-1_
  6
CONTINUOUS
 62
    7
 10
901.95875572882096
 20
538.82284171792992
 40
5.6266165746224894
 50
255.86929321289065
 51
258.9737548828125
  0
ARC
  8
_1-1_
  6
CONTINUOUS
 62
    7
 10
901.92008618682507
 20
539.10039629255016
 40
5.8863448567372023
 50
252.68415832519531
 51
255.8692932128906
  0
ARC
  8
_1-1_
  6
CONTINUOUS
 62
    7
 10
902.60843902941372
 20
541.49125883477996
 40
8.3737329350475171
 50
251.1893310546875
 51
252.68415832519531
  0
ARC
  8
_1-1_
  6
CONTINUOUS
 62
    7
 10
902.67597949642936
 20
541.68950585324785
 40
8.5831578679986897
 50
249.73098754882812
 51
251.1893310546875
  0
ARC
  8
_1-1_
  6
CONTINUOUS
 62
    7
 10
902.0180723565885
 20
540.06577878384974
 40
6.8320863702582564
 50
246.98298645019531
 51
249.73100280761719
  0
ARC
  8
_1-1_
  6
CONTINUOUS
 62
    7
 10
905.05599356986386
 20
547.21697567972899
 40
14.601820279272367
 50
245.69761657714841
 51
246.98327636718747
  0
ARC
  8
_1-1_
  6
CONTINUOUS
 62
    7
 10
902.20783307285376
 20
540.90968467093808
 40
7.6812592873702172
 50
243.25442504882812
 51
245.69761657714844
  0
ARC
  8
_1-1_
  6
CONTINUOUS
 62
    7
 10
903.76458834497157
 20
544.11308877716647
 40
11.242524797391706
 50
241.19387817382812
 51
243.25442504882812
  0
ARC
  8
_1-1_
  6
CONTINUOUS
 62
    7
 10
784.3548799021363
 20
735.7372045332861
 40
91.684472496445125
 50
313.11854553222656
 51
313.34809875488281
  0
ARC
  8
_1-1_
  6
CONTINUOUS
 62
    7
 10
844.86842623088353
 20
555.00315795073629
 40
24.968562927025161
 50
311.93763732910156
 51
313.31773376464844
  0
ARC
  8
_1-1_
  6
CONTINUOUS
 62
    7
 10
847.38824557153407
 20
552.18338719666224
 40
21.186983005420579
 50
310.2567138671875
 51
311.93763732910156
  0
ARC
  8
_1-1_
  6
CONTINUOUS
 62
    7
 10
851.63279647532579
 20
547.03093318865558
 40
14.511925350284944
 50
308.35626220703125
 51
310.2567138671875
  0
ARC
  8
_1-1_
  6
CONTINUOUS
 62
    7
 10
844.87866228611767
 20
555.54724365587856
 40
25.381422622783759
 50
307.32188415527344
 51
308.35626220703125
  0
ARC
  8
_1-1_
  6
CONTINUOUS
 62
    7
 10
852.93303795302688
 20
544.96233141100083
 40
12.080531419474186
 50
305.26603698730469
 51
307.32188415527344
  0
ARC
  8
_1-1_
  6
CONTINUOUS
 62
    7
 10
846.93707175236409
 20
553.41866909306941
 40
22.446924116620686
 50
304.22677612304688
 51
305.26603698730469
  0
ARC
  8
_1-1_
  6
CONTINUOUS
 62
    7
 10
853.73521223031412
 20
543.42547957961619
 40
10.360629448099026
 50
301.97549438476562
 51
304.22683715820313
  0
ARC
  8
_1-1_
  6
CONTINUOUS
 62
    7
 10
849.21586261292668
 20
550.66477654063101
 40
18.894766891324842
 50
300.74110412597656
 51
301.9755859375
  0
ARC
  8
_1-1_
  6
CONTINUOUS
 62
    7
 10
854.36468588339312
 20
542.00739223524408
 40
8.8220217122074249
 50
298.09727478027344
 51
300.74089050292969
  0
ARC
  8
_1-1_
  6
CONTINUOUS
 62
    7
 10
851.70786088037676
 20
546.93469677192365
 40
14.41992114869784
 50
296.66297912597656
 51
298.09727478027344
  0
ARC
  8
_1-1_
  6
CONTINUOUS
 62
    7
 10
854.48130692294194
 20
541.41142635271808
 40
8.2393888110819926
 50
294.15304565429687
 51
296.66297912597656
  0
ARC
  8
_1-1_
  6
CONTINUOUS
 62
    7
 10
854.06985249758679
 20
542.20244595442955
 40
9.1295332890219658
 50
291.23834228515625
 51
294.15304565429687
  0
ARC
  8
_1-1_
  6
CONTINUOUS
 62
    7
 10
854.97115028410803
 20
539.69898680462336
 40
6.4696168278174966
 50
288.06178283691406
 51
291.23834228515625
  0
ARC
  8
_1-1_
  6
CONTINUOUS
 62
    7
 10
854.42015305449127
 20
541.19572554776107
 40
8.063423803874425
 50
286.362548828125
 51
288.06178283691406
  0
ARC
  8
_1-1_
  6
CONTINUOUS
 62
    7
 10
854.48961824984156
 20
540.95907145025183
 40
7.8167803936483313
 50
284.60972595214844
 51
286.362548828125
  0
ARC
  8
_1-1_
  6
CONTINUOUS
 62
    7
 10
854.89004923109837
 20
539.27064726251433
 40
6.0819494747287051
 50
281.63330078125006
 51
284.60972595214844
  0
ARC
  8
_1-1_
  6
CONTINUOUS
 62
    7
 10
854.66826803435674
 20
540.09189384784474
 40
6.9310485741346497
 50
278.16847229003906
 51
281.63330078125
  0
ARC
  8
_1-1_
  6
CONTINUOUS
 62
    7
 10
854.62749878872319
 20
540.28274815975465
 40
7.1257625951730139
 50
274.58732604980469
 51
278.16885375976562
  0
ARC
  8
_1-1_
  6
CONTINUOUS
 62
    7
 10
854.6993261506658
 20
538.95201723547973
 40
5.7935669362314881
 50
270.87188720703119
 51
274.58732604980469
  0
ARC
  8
_1-1_
  6
CONTINUOUS
 62
    7
 10
854.6436840042644
 20
538.94878019237149
 40
5.7911924666879724
 50
268.25614929199219
 51
270.87188720703125
  0
ARC
  8
_1-1_
  6
CONTINUOUS
 62
    7
 10
854.6558447878333
 20
540.03577051935963
 40
6.8780208048212943
 50
266.40116882324219
 51
268.25614929199219
  0
ARC
  8
_1-1_
  6
CONTINUOUS
 62
    7
 10
854.66258133700444
 20
540.14206801602279
 40
6.9845623100126106
 50
264.57447814941406
 51
266.40116882324219
  0
ARC
  8
_1-1_
  6
CONTINUOUS
 62
    7
 10
854.45567304103065
 20
538.55302980047395
 40
5.3830711158085975
 50
261.01815795898438
 51
264.5740966796875
  0
ARC
  8
_1-1_
  6
CONTINUOUS
 62
    7
 10
855.34183546382951
 20
544.15993841458464
 40
11.059579232484678
 50
259.28717041015625
 51
261.01835632324219
  0
ARC
  8
_1-1_
  6
CONTINUOUS
 62
    7
 10
854.33249042761361
 20
538.82476644626445
 40
5.6297774077842586
 50
255.88740539550781
 51
259.28717041015625
  0
ARC
  8
_1-1_
  6
CONTINUOUS
 62
    7
 10
854.79792473399027
 20
540.90329807237299
 40
7.7590337591281724
 50
254.12515258789065
 51
255.88740539550784
  0
ARC
  8
_1-1_
  6
CONTINUOUS
 62
    7
 10
854.86957712062986
 20
541.15526250890775
 40
8.0209895588716478
 50
252.42044067382812
 51
254.12515258789062
  0
ARC
  8
_1-1_
  6
CONTINUOUS
 62
    7
 10
854.96152664243482
 20
541.44637766952212
 40
8.3263043754349333
 50
250.77485656738281
 51
252.42044067382812
  0
ARC
  8
_1-1_
  6
CONTINUOUS
 62
    7
 10
854.35646204414513
 20
539.89299067198999
 40
6.6602934304351518
 50
247.68827819824222
 51
250.77452087402347
  0
ARC
  8
_1-1_
  6
CONTINUOUS
 62
    7
 10
857.26262685414895
 20
546.97467862869314
 40
14.315067198285725
 50
246.25204467773437
 51
247.68833923339844
  0
ARC
  8
_1-1_
  6
CONTINUOUS
 62
    7
 10
854.55269684662676
 20
540.81532923871487
 40
7.5859326055151151
 50
243.54214477539062
 51
246.25204467773437
  0
ARC
  8
_1-1_
  6
CONTINUOUS
 62
    7
 10
856.01321570201264
 20
543.88338994795743
 40
10.983395258892457
 50
242.13069152832031
 51
243.54214477539062
  0
ARC
  8
_1-1_
  6
CONTINUOUS
 62
    7
 10
856.16955613537641
 20
544.17887949115061
 40
11.317691043537096
 50
240.76091003417969
 51
242.13069152832031
  0
ARC
  8
_1-1_
  6
CONTINUOUS
 62
    7
 10
856.43753081214925
 20
544.6587492600371
 40
11.867322645592413
 50
239.449951171875
 51
240.76091003417969
  0
ARC
  8
_1-1_
  6
CONTINUOUS
 62
    7
 10
855.25504771346743
 20
542.7886569638049
 40
9.6557762977239232
 50
237.03286743164062
 51
239.44976806640625
  0
ARC
  8
_1-1_
  6
CONTINUOUS
 62
    7
 10
861.55170897259211
 20
552.49689919607977
 40
21.227202719242875
 50
235.93319702148435
 51
237.03283691406247
  0
ARC
  8
_1-1_
  6
CONTINUOUS
 62
    7
 10
856.10787734101632
 20
544.44632924201403
 40
11.508790047472509
 50
233.90507507324219
 51
235.93319702148435
  0
ARC
  8
_1-1_
  6
CONTINUOUS
 62
    7
 10
859.37790329391885
 20
549.04551134146323
 40
17.151624645505631
 50
232.83551025390625
 51
233.90507507324219
  0
ARC
  8
_1-1_
  6
CONTINUOUS
 62
    7
 10
859.66783737123694
 20
549.4280073541471
 40
17.631595571989259
 50
231.79507446289065
 51
232.83551025390628
  0
ARC
  8
_1-1_
  6
CONTINUOUS
 62
    7
 10
860.25811655641064
 20
550.17913258674059
 40
18.586878707510163
 50
230.80340576171878
 51
231.79507446289065
  0
ARC
  8
_1-1_
  6
CONTINUOUS
 62
    7
 10
858.07704940265671
 20
547.63184212349552
 40
15.234402477971374
 50
228.98875427246097
 51
230.80342102050784
  0
ARC
  8
_1-1_
  6
CONTINUOUS
 62
    7
 10
870.23818292212752
 20
561.61621830178046
 40
33.76698279472852
 50
228.17024230957031
 51
228.98887634277344
  0
ARC
  8
_1-1_
  6
CONTINUOUS
 62
    7
 10
860.03441063133437
 20
550.21587740040195
 40
18.467136819390255
 50
226.67364501953125
 51
228.17024230957031
  0
ARC
  8
_1-1_
  6
CONTINUOUS
 62
    7
 10
784.38602550609687
 20
470.21156959091832
 40
91.639000789539224
 50
46.651840209960945
 51
46.881439208984382
  0
ARC
  8
_1-1_
  6
CONTINUOUS
 62
    7
 10
862.53384534916813
 20
536.29821055644265
 40
0.7596698883762691
 50
130.076904296875
 51
133.23222351074219
  0
ARC
  8
_1-1_
  6
CONTINUOUS
 62
    7
 10
862.48520221489275
 20
536.36150787235681
 40
0.6799241677501946
 50
126.65824890136719
 51
130.076904296875
  0
ARC
  8
_1-1_
  6
CONTINUOUS
 62
    7
 10
862.49850033793211
 20
536.354071421973
 40
0.6938615316187092
 50
124.34346008300781
 51
126.65824890136719
  0
ARC
  8
_1-1_
  6
CONTINUOUS
 62
    7
 10
862.7083832140595
 20
536.04690227729475
 40
1.0658543697885565
 50
122.83644104003905
 51
124.34346008300781
  0
ARC
  8
_1-1_
  6
CONTINUOUS
 62
    7
 10
862.49036398633564
 20
536.38998510294437
 40
0.6593437656817748
 50
119.90776062011719
 51
122.83644104003908
  0
ARC
  8
_1-1_
  6
CONTINUOUS
 62
    7
 10
862.62317024142578
 20
536.17043484131796
 40
0.9159073699625301
 50
117.092529296875
 51
119.90776062011719
  0
ARC
  8
_1-1_
  6
CONTINUOUS
 62
    7
 10
862.63830560514816
 20
536.14086401508575
 40
0.9491099589809947
 50
114.37153625488281
 51
117.09210205078125
  0
ARC
  8
_1-1_
  6
CONTINUOUS
 62
    7
 10
862.64976648750451
 20
536.11566757143225
 40
0.9768041579994915
 50
111.72984313964845
 51
114.37261962890626
  0
ARC
  8
_1-1_
  6
CONTINUOUS
 62
    7
 10
862.65842776501029
 20
536.09388314619025
 40
1.0002306000146166
 50
109.14999389648439
 51
111.72984313964845
  0
ARC
  8
_1-1_
  6
CONTINUOUS
 62
    7
 10
862.65510323425042
 20
536.10635013653962
 40
0.9873881133481801
 50
106.4248504638672
 51
109.14999389648439
  0
ARC
  8
_1-1_
  6
CONTINUOUS
 62
    7
 10
862.68213691858705
 20
536.01807509610092
 40
1.0796839973986379
 50
103.82772827148437
 51
106.42485046386719
  0
ARC
  8
_1-1_
  6
CONTINUOUS
 62
    7
 10
862.68309928275448
 20
536.02074346947393
 40
1.0773238812979584
 50
101.06417846679689
 51
103.82847595214845
  0
ARC
  8
_1-1_
  6
CONTINUOUS
 62
    7
 10
862.71057040534879
 20
535.88841839646739
 40
1.212457444619488
 50
98.753067016601563
 51
101.06417846679687
  0
ARC
  8
_1-1_
  6
CONTINUOUS
 62
    7
 10
862.72168133709886
 20
535.81597862096362
 40
1.2857404848898699
 50
96.573181152343736
 51
98.752838134765611
  0
ARC
  8
_1-1_
  6
CONTINUOUS
 62
    7
 10
862.73104251581731
 20
535.73452761734768
 40
1.3677516145250512
 50
94.523635864257813
 51
96.573013305664063
  0
ARC
  8
_1-1_
  6
CONTINUOUS
 62
    7
 10
862.73812901559484
 20
535.64502774978689
 40
1.4575206945761749
 50
92.600509643554688
 51
94.52374267578125
  0
ARC
  8
_1-1_
  6
CONTINUOUS
 62
    7
 10
862.74267837347668
 20
535.54555428994672
 40
1.5571135955657736
 50
90.800369262695298
 51
92.600509643554673
  0
ARC
  8
_1-1_
  6
CONTINUOUS
 62
    7
 10
862.74425315120493
 20
535.55334069093681
 40
1.5493266819526788
 50
88.863601684570313
 51
90.800369262695298
  0
ARC
  8
_1-1_
  6
CONTINUOUS
 62
    7
 10
862.74372822529563
 20
535.41252931572751
 40
1.6901501892386257
 50
86.938644409179688
 51
88.863601684570313
  0
ARC
  8
_1-1_
  6
CONTINUOUS
 62
    7
 10
862.73856645385263
 20
535.30736915853493
 40
1.7954019350664954
 50
85.096694946289063
 51
86.93878173828125
  0
ARC
  8
_1-1_
  6
CONTINUOUS
 62
    7
 10
862.73130497877196
 20
535.22294357476551
 40
1.8801374848514909
 50
83.337554931640625
 51
85.096603393554688
  0
ARC
  8
_1-1_
  6
CONTINUOUS
 62
    7
 10
862.72054399762828
 20
535.13099405296066
 40
1.972717703769566
 50
81.660552978515625
 51
83.337356567382813
  0
ARC
  8
_1-1_
  6
CONTINUOUS
 62
    7
 10
862.70593355981532
 20
535.03147684929456
 40
2.0733233768507322
 50
80.064514160156236
 51
81.660354614257798
  0
ARC
  8
_1-1_
  6
CONTINUOUS
 62
    7
 10
862.68721120237842
 20
534.92421698846408
 40
2.1822179922956293
 50
78.547897338867188
 51
80.064407348632812
  0
ARC
  8
_1-1_
  6
CONTINUOUS
 62
    7
 10
862.66376451175643
 20
534.80882077603724
 40
2.2999286973798596
 50
77.10888671875
 51
78.547897338867188
  0
ARC
  8
_1-1_
  6
CONTINUOUS
 62
    7
 10
862.65956510448075
 20
534.78428048977059
 40
2.3248114157827664
 50
75.620895385742188
 51
77.10888671875
  0
ARC
  8
_1-1_
  6
CONTINUOUS
 62
    7
 10
862.64215506181745
 20
534.70536662805034
 40
2.4055556832133114
 50
74.050277709960938
 51
75.620895385742188
  0
ARC
  8
_1-1_
  6
CONTINUOUS
 62
    7
 10
862.58922503261488
 20
534.51473103526939
 40
2.6034166965935679
 50
72.534393310546875
 51
74.050399780273438
  0
ARC
  8
_1-1_
  6
CONTINUOUS
 62
    7
 10
862.56017913229221
 20
534.42251905050978
 40
2.7000652621841796
 50
71.072906494140611
 51
72.534469604492187
  0
ARC
  8
_1-1_
  6
CONTINUOUS
 62
    7
 10
862.52702131234537
 20
534.32580145169402
 40
2.8023466997165016
 50
69.664947509765625
 51
71.072998046875
  0
ARC
  8
_1-1_
  6
CONTINUOUS
 62
    7
 10
862.48957659747145
 20
534.22475321412537
 40
2.9101147407730572
 50
68.309417724609375
 51
69.66510009765625
  0
ARC
  8
_1-1_
  6
CONTINUOUS
 62
    7
 10
862.45169444433964
 20
534.12947916156077
 40
3.0126068663412999
 50
67.000015258789062
 51
68.309417724609375
  0
ARC
  8
_1-1_
  6
CONTINUOUS
 62
    7
 10
862.67653770888626
 20
534.62339069852499
 40
2.4701523274528472
 50
64.75579833984375
 51
67.000015258789062
  0
ARC
  8
_1-1_
  6
CONTINUOUS
 62
    7
 10
894.26071726677492
 20
534.61468567719328
 40
2.4794318282466135
 50
113.07763671875001
 51
115.23965454101562
  0
ARC
  8
_1-1_
  6
CONTINUOUS
 62
    7
 10
894.48354831533538
 20
534.12619837462671
 40
3.0161504579787084
 50
111.81301879882813
 51
113.07763671875001
  0
ARC
  8
_1-1_
  6
CONTINUOUS
 62
    7
 10
894.44916566826669
 20
534.21219873612449
 40
2.9235003514639657
 50
110.50804138183594
 51
111.81288146972655
  0
ARC
  8
_1-1_
  6
CONTINUOUS
 62
    7
 10
894.41259582990835
 20
534.30992244293327
 40
2.8191617579994057
 50
109.15463256835937
 51
110.50796508789063
  0
ARC
  8
_1-1_
  6
CONTINUOUS
 62
    7
 10
894.38005042352256
 20
534.40344674246649
 40
2.7201503423190019
 50
107.75181579589844
 51
109.15455627441405
  0
ARC
  8
_1-1_
  6
CONTINUOUS
 62
    7
 10
894.35152944910942
 20
534.49268414707251
 40
2.626444061635544
 50
106.29878234863281
 51
107.75172424316405
  0
ARC
  8
_1-1_
  6
CONTINUOUS
 62
    7
 10
894.30034917293824
 20
534.67207757662618
 40
2.4399333749268504
 50
104.79501342773436
 51
106.2987823486328
  0
ARC
  8
_1-1_
  6
CONTINUOUS
 62
    7
 10
894.2827641549718
 20
534.74819183349609
 40
2.3618743974269583
 50
103.35917663574217
 51
104.79501342773436
  0
ARC
  8
_1-1_
  6
CONTINUOUS
 62
    7
 10
894.27681499466473
 20
534.77833132946353
 40
2.3311282976253613
 50
101.96034240722656
 51
103.35917663574219
  0
ARC
  8
_1-1_
  6
CONTINUOUS
 62
    7
 10
894.25310584108797
 20
534.8904030111305
 40
2.2166100374520052
 50
100.48941040039062
 51
101.96041870117187
  0
ARC
  8
_1-1_
  6
CONTINUOUS
 62
    7
 10
894.23377107009003
 20
534.99451331650425
 40
2.1107175129260796
 50
98.94500732421875
 51
100.48956298828126
  0
ARC
  8
_1-1_
  6
CONTINUOUS
 62
    7
 10
894.21854821871602
 20
535.09127465914571
 40
2.0127602209225586
 50
97.325759887695313
 51
98.945159912109375
  0
ARC
  8
_1-1_
  6
CONTINUOUS
 62
    7
 10
894.20708733635979
 20
535.18068703905487
 40
1.9226207707839582
 50
95.630676269531236
 51
97.325790405273423
  0
ARC
  8
_1-1_
  6
CONTINUOUS
 62
    7
 10
894.19895098476331
 20
535.26279420005767
 40
1.8400954803214571
 50
93.859222412109375
 51
95.6304931640625
  0
ARC
  8
_1-1_
  6
CONTINUOUS
 62
    7
 10
894.19273936150148
 20
535.36034293156331
 40
1.74236750165468
 50
92.011383056640625
 51
93.859222412109375
  0
ARC
  8
_1-1_
  6
CONTINUOUS
 62
    7
 10
894.19002724430266
 20
535.484619140625
 40
1.6180454982753887
 50
90.138259887695312
 51
92.011383056640611
  0
ARC
  8
_1-1_
  6
CONTINUOUS
 62
    7
 10
894.19125207142474
 20
535.50229164624307
 40
1.6003788023841885
 50
88.336776733398438
 51
90.138259887695327
  0
ARC
  8
_1-1_
  6
CONTINUOUS
 62
    7
 10
894.19440162688147
 20
535.61042638358924
 40
1.4922175795185058
 50
86.404525756835938
 51
88.336669921875
  0
ARC
  8
_1-1_
  6
CONTINUOUS
 62
    7
 10
894.20035078718854
 20
535.70495679111548
 40
1.3975125384376774
 50
84.3416748046875
 51
86.404693603515625
  0
ARC
  8
_1-1_
  6
CONTINUOUS
 62
    7
 10
894.20892457704281
 20
535.79095715261337
 40
1.3110796940372715
 50
82.143295288085938
 51
84.341888427734375
  0
ARC
  8
_1-1_
  6
CONTINUOUS
 62
    7
 10
894.21942309523172
 20
535.8675963353927
 40
1.2337201051270179
 50
79.806961059570298
 51
82.143234252929673
  0
ARC
  8
_1-1_
  6
CONTINUOUS
 62
    7
 10
894.23158387880062
 20
535.93518054623394
 40
1.165021451974007
 50
77.331436157226563
 51
79.806228637695313
  0
ARC
  8
_1-1_
  6
CONTINUOUS
 62
    7
 10
894.24514446479463
 20
535.99545953816892
 40
1.1032675583505263
 50
74.717376708984375
 51
77.331436157226563
  0
ARC
  8
_1-1_
  6
CONTINUOUS
 62
    7
 10
894.30402365430439
 20
536.19650616148715
 40
0.8938322875030252
 50
71.965957641601563
 51
74.717376708984361
  0
ARC
  8
_1-1_
  6
CONTINUOUS
 62
    7
 10
894.21592358916882
 20
535.92310725031666
 40
1.1810142630315654
 50
69.972488403320313
 51
71.965957641601563
  0
ARC
  8
_1-1_
  6
CONTINUOUS
 62
    7
 10
894.31942148098142
 20
536.20700467967617
 40
0.8788580582638965
 50
67.29388427734375
 51
69.972488403320313
  0
ARC
  8
_1-1_
  6
CONTINUOUS
 62
    7
 10
894.28635114868621
 20
536.12052313609468
 40
0.9714397296136869
 50
64.533233642578125
 51
67.29376220703125
  0
ARC
  8
_1-1_
  6
CONTINUOUS
 62
    7
 10
894.30087409884766
 20
536.15096883884257
 40
0.9376755621442463
 50
61.67608642578125
 51
64.533233642578125
  0
ARC
  8
_1-1_
  6
CONTINUOUS
 62
    7
 10
894.31863409211724
 20
536.18382045200883
 40
0.9003557563978732
 50
58.706069946289063
 51
61.67608642578125
  0
ARC
  8
_1-1_
  6
CONTINUOUS
 62
    7
 10
894.33901871493413
 20
536.21724073491032
 40
0.861181964285125
 50
55.608367919921882
 51
58.706069946289063
  0
ARC
  8
_1-1_
  6
CONTINUOUS
 62
    7
 10
894.36150304138891
 20
536.24996111659925
 40
0.821501529815114
 50
52.369384765624993
 51
55.608367919921868
  0
ARC
  8
_1-1_
  6
CONTINUOUS
 62
    7
 10
894.47829905624087
 20
536.39431574169726
 40
0.6358386787611085
 50
48.976104736328132
 51
52.369384765625007
  0
ARC
  8
_1-1_
  6
CONTINUOUS
 62
    7
 10
894.35686619585545
 20
536.25026732337983
 40
0.8242573054025531
 50
46.763671875000007
 51
48.976104736328132
  0
ARC
  8
_1-1_
  6
CONTINUOUS
 62
    7
 10
972.56951438874341
 20
470.18864782620574
 40
91.670436196345619
 50
133.1185302734375
 51
133.34811401367187
  0
ARC
  8
_1-1_
  6
CONTINUOUS
 62
    7
 10
972.5642651296489
 20
735.72136926835105
 40
91.662781026832846
 50
226.65185546874997
 51
226.88140869140622
  0
ARC
  8
_1-1_
  6
CONTINUOUS
 62
    7
 10
894.40008509573317
 20
669.61740574781504
 40
0.7596698883762691
 50
310.07690429687506
 51
313.23222351074219
  0
ARC
  8
_1-1_
  6
CONTINUOUS
 62
    7
 10
894.4488157176603
 20
669.55410843190077
 40
0.6799241677501946
 50
306.65824890136719
 51
310.076904296875
  0
ARC
  8
_1-1_
  6
CONTINUOUS
 62
    7
 10
894.43543010696942
 20
669.56154488228458
 40
0.6938615316187092
 50
304.34346008300781
 51
306.65824890136719
  0
ARC
  8
_1-1_
  6
CONTINUOUS
 62
    7
 10
894.22554723084204
 20
669.86871402696295
 40
1.0658543697885565
 50
302.83644104003906
 51
304.34346008300781
  0
ARC
  8
_1-1_
  6
CONTINUOUS
 62
    7
 10
894.44365394621741
 20
669.52558745748752
 40
0.6593437656817748
 50
299.90776062011719
 51
302.83644104003906
  0
ARC
  8
_1-1_
  6
CONTINUOUS
 62
    7
 10
894.31084769112715
 20
669.74518146293963
 40
0.9159073699625301
 50
297.092529296875
 51
299.90776062011719
  0
ARC
  8
_1-1_
  6
CONTINUOUS
 62
    7
 10
894.29562483975315
 20
669.77475228917183
 40
0.9491099589809947
 50
294.37153625488281
 51
297.09210205078125
  0
ARC
  8
_1-1_
  6
CONTINUOUS
 62
    7
 10
894.28425144504854
 20
669.79994873282521
 40
0.9768041579994915
 50
291.72984313964844
 51
294.37261962890625
  0
ARC
  8
_1-1_
  6
CONTINUOUS
 62
    7
 10
894.27559016754253
 20
669.82173315806733
 40
1.0002306000146166
 50
289.14999389648437
 51
291.72984313964844
  0
ARC
  8
_1-1_
  6
CONTINUOUS
 62
    7
 10
894.27882721065089
 20
669.80926616771796
 40
0.9873881133481801
 50
286.42485046386719
 51
289.14999389648437
  0
ARC
  8
_1-1_
  6
CONTINUOUS
 62
    7
 10
894.25179352631426
 20
669.89754120815678
 40
1.0796839973986379
 50
283.82772827148437
 51
286.42485046386719
  0
ARC
  8
_1-1_
  6
CONTINUOUS
 62
    7
 10
894.25083116214705
 20
669.89487283478365
 40
1.0773238812979584
 50
281.06417846679687
 51
283.82847595214844
  0
ARC
  8
_1-1_
  6
CONTINUOUS
 62
    7
 10
894.22344752720414
 20
670.0271979077902
 40
1.212457444619488
 50
278.75306701660156
 51
281.06417846679687
  0
ARC
  8
_1-1_
  6
CONTINUOUS
 62
    7
 10
894.21224910780268
 20
670.09963768329396
 40
1.2857404848898699
 50
276.57318115234375
 51
278.75283813476557
  0
ARC
  8
_1-1_
  6
CONTINUOUS
 62
    7
 10
894.20288792908423
 20
670.1810886869099
 40
1.3677516145250512
 50
274.52363586425781
 51
276.57301330566406
  0
ARC
  8
_1-1_
  6
CONTINUOUS
 62
    7
 10
894.19580142930658
 20
670.27058855447069
 40
1.4575206945761749
 50
272.60050964355469
 51
274.52374267578125
  0
ARC
  8
_1-1_
  6
CONTINUOUS
 62
    7
 10
894.19133955907625
 20
670.37006201431097
 40
1.5571135955657736
 50
270.80036926269531
 51
272.60050964355469
  0
ARC
  8
_1-1_
  6
CONTINUOUS
 62
    7
 10
894.18967729369638
 20
670.36227561332089
 40
1.5493266819526788
 50
268.86360168457031
 51
270.80036926269531
  0
ARC
  8
_1-1_
  6
CONTINUOUS
 62
    7
 10
894.19028970725753
 20
670.50308698852996
 40
1.6901501892386257
 50
266.93864440917969
 51
268.86360168457031
  0
ARC
  8
_1-1_
  6
CONTINUOUS
 62
    7
 10
894.19545147870042
 20
670.60824714572266
 40
1.7954019350664954
 50
265.09669494628906
 51
266.93878173828125
  0
ARC
  8
_1-1_
  6
CONTINUOUS
 62
    7
 10
894.20271295378097
 20
670.69267272949219
 40
1.8801374848514909
 50
263.33755493164063
 51
265.09660339355469
  0
ARC
  8
_1-1_
  6
CONTINUOUS
 62
    7
 10
894.21338644727314
 20
670.78462225129692
 40
1.972717703769566
 50
261.66055297851562
 51
263.33735656738281
  0
ARC
  8
_1-1_
  6
CONTINUOUS
 62
    7
 10
894.22799688508599
 20
670.88413945496313
 40
2.0733233768507322
 50
260.06451416015631
 51
261.66035461425787
  0
ARC
  8
_1-1_
  6
CONTINUOUS
 62
    7
 10
894.24680673017463
 20
670.99139931579339
 40
2.1822179922956293
 50
258.54789733886719
 51
260.06440734863281
  0
ARC
  8
_1-1_
  6
CONTINUOUS
 62
    7
 10
894.27016593314511
 20
671.10679552822035
 40
2.2999286973798596
 50
257.10888671875
 51
258.54789733886719
  0
ARC
  8
_1-1_
  6
CONTINUOUS
 62
    7
 10
894.27445282807207
 20
671.1313358144871
 40
2.3248114157827664
 50
255.62089538574219
 51
257.10888671875
  0
ARC
  8
_1-1_
  6
CONTINUOUS
 62
    7
 10
894.29177538308397
 20
671.21024967620724
 40
2.4055556832133114
 50
254.05027770996094
 51
255.62089538574219
  0
ARC
  8
_1-1_
  6
CONTINUOUS
 62
    7
 10
894.34479289993817
 20
671.40088526898819
 40
2.6034166965935679
 50
252.53439331054687
 51
254.05039978027344
  0
ARC
  8
_1-1_
  6
CONTINUOUS
 62
    7
 10
894.37375131260933
 20
671.49305350992211
 40
2.7000652621841796
 50
251.0729064941406
 51
252.53446960449216
  0
ARC
  8
_1-1_
  6
CONTINUOUS
 62
    7
 10
894.40690913255605
 20
671.58981485256345
 40
2.8023466997165016
 50
249.66494750976565
 51
251.07299804687503
  0
ARC
  8
_1-1_
  6
CONTINUOUS
 62
    7
 10
894.44435384742997
 20
671.6908630901321
 40
2.9101147407730572
 50
248.30941772460937
 51
249.66510009765625
  0
ARC
  8
_1-1_
  6
CONTINUOUS
 62
    7
 10
894.48223600056178
 20
671.786093398871
 40
3.0126068663412999
 50
247.00001525878906
 51
248.30941772460937
  0
ARC
  8
_1-1_
  6
CONTINUOUS
 62
    7
 10
894.25748022366679
 20
671.29222560573271
 40
2.4701523274528472
 50
244.75579833984375
 51
247.00001525878906
  0
ARC
  8
_1-1_
  6
CONTINUOUS
 62
    7
 10
862.67321317812639
 20
671.30093062706442
 40
2.4794318282466135
 50
293.07763671875
 51
295.23965454101562
  0
ARC
  8
_1-1_
  6
CONTINUOUS
 62
    7
 10
862.45046961721755
 20
671.78941792963087
 40
3.0161504579787084
 50
291.81301879882813
 51
293.07763671875
  0
ARC
  8
_1-1_
  6
CONTINUOUS
 62
    7
 10
862.48485226428647
 20
671.70341756813309
 40
2.9235003514639657
 50
290.50804138183594
 51
291.81288146972656
  0
ARC
  8
_1-1_
  6
CONTINUOUS
 62
    7
 10
862.52142210264446
 20
671.60569386132443
 40
2.8191617579994057
 50
289.15463256835937
 51
290.50796508789062
  0
ARC
  8
_1-1_
  6
CONTINUOUS
 62
    7
 10
862.55388002137875
 20
671.5121695617911
 40
2.7201505131933219
 50
287.75181579589844
 51
289.15455627441406
  0
ARC
  8
_1-1_
  6
CONTINUOUS
 62
    7
 10
862.58248848344363
 20
671.42288841335926
 40
2.626444061635544
 50
286.29878234863281
 51
287.75172424316406
  0
ARC
  8
_1-1_
  6
CONTINUOUS
 62
    7
 10
862.63358127196307
 20
671.2435387276314
 40
2.4399333749268504
 50
284.79501342773437
 51
286.29878234863281
  0
ARC
  8
_1-1_
  6
CONTINUOUS
 62
    7
 10
862.65116628992973
 20
671.16742447076149
 40
2.3618743974269583
 50
283.35917663574219
 51
284.79501342773437
  0
ARC
  8
_1-1_
  6
CONTINUOUS
 62
    7
 10
862.65720293788831
 20
671.13728497479417
 40
2.3311282976253613
 50
281.96034240722656
 51
283.35917663574219
  0
ARC
  8
_1-1_
  6
CONTINUOUS
 62
    7
 10
862.68091209146507
 20
671.02521329312708
 40
2.2166100374520052
 50
280.48941040039062
 51
281.96041870117187
  0
ARC
  8
_1-1_
  6
CONTINUOUS
 62
    7
 10
862.70015937481151
 20
670.92110298775333
 40
2.1107175129260796
 50
278.94500732421875
 51
280.48956298828125
  0
ARC
  8
_1-1_
  6
CONTINUOUS
 62
    7
 10
862.71538222618551
 20
670.82434164511187
 40
2.0127602209225586
 50
277.32575988769531
 51
278.94515991210937
  0
ARC
  8
_1-1_
  6
CONTINUOUS
 62
    7
 10
862.72693059619326
 20
670.7349292652026
 40
1.9226207707839582
 50
275.63067626953125
 51
277.32579040527344
  0
ARC
  8
_1-1_
  6
CONTINUOUS
 62
    7
 10
862.73497946013799
 20
670.65282210419991
 40
1.8400954803214571
 50
273.85922241210937
 51
275.6304931640625
  0
ARC
  8
_1-1_
  6
CONTINUOUS
 62
    7
 10
862.74119108339983
 20
670.55527337269427
 40
1.74236750165468
 50
272.01138305664062
 51
273.85922241210937
  0
ARC
  8
_1-1_
  6
CONTINUOUS
 62
    7
 10
862.74399068825028
 20
670.43099716363258
 40
1.6180454982753887
 50
270.13825988769531
 51
272.01138305664062
  0
ARC
  8
_1-1_
  6
CONTINUOUS
 62
    7
 10
862.74267837347668
 20
670.41332465801463
 40
1.6003788023841885
 50
268.33677673339844
 51
270.13825988769531
  0
ARC
  8
_1-1_
  6
CONTINUOUS
 62
    7
 10
862.73952881802006
 20
670.30518992066845
 40
1.4922175795185058
 50
266.40452575683594
 51
268.336669921875
  0
ARC
  8
_1-1_
  6
CONTINUOUS
 62
    7
 10
862.73357965771299
 20
670.2106595131421
 40
1.3975125384376774
 50
264.3416748046875
 51
266.40469360351562
  0
ARC
  8
_1-1_
  6
CONTINUOUS
 62
    7
 10
862.72509335551024
 20
670.12465915164421
 40
1.3110796940372715
 50
262.14329528808594
 51
264.34188842773437
  0
ARC
  8
_1-1_
  6
CONTINUOUS
 62
    7
 10
862.71450734966959
 20
670.04801996886499
 40
1.2337201051270179
 50
259.80696105957031
 51
262.14323425292969
  0
ARC
  8
_1-1_
  6
CONTINUOUS
 62
    7
 10
862.70234656610069
 20
669.98039201419783
 40
1.165021451974007
 50
257.33143615722656
 51
259.80622863769531
  0
ARC
  8
_1-1_
  6
CONTINUOUS
 62
    7
 10
862.6888734677583
 20
669.92015676608867
 40
1.1032675583505263
 50
254.71737670898437
 51
257.33143615722656
  0
ARC
  8
_1-1_
  6
CONTINUOUS
 62
    7
 10
862.62999427824866
 20
669.71911014277043
 40
0.8938322875030252
 50
251.96595764160156
 51
254.71737670898437
  0
ARC
  8
_1-1_
  6
CONTINUOUS
 62
    7
 10
862.71800685573271
 20
669.99246531011511
 40
1.1810142630315654
 50
249.97248840332031
 51
251.96595764160156
  0
ARC
  8
_1-1_
  6
CONTINUOUS
 62
    7
 10
862.61450896391989
 20
669.70861162458152
 40
0.8788580582638965
 50
247.29388427734375
 51
249.97248840332031
  0
ARC
  8
_1-1_
  6
CONTINUOUS
 62
    7
 10
862.64766678386661
 20
669.79509316816291
 40
0.9714397296136869
 50
244.5332336425781
 51
247.29376220703119
  0
ARC
  8
_1-1_
  6
CONTINUOUS
 62
    7
 10
862.63314383370528
 20
669.76464746541501
 40
0.9376755621442463
 50
241.67608642578131
 51
244.53323364257818
  0
ARC
  8
_1-1_
  6
CONTINUOUS
 62
    7
 10
862.61538384043558
 20
669.73179585224875
 40
0.9003557563978732
 50
238.70606994628906
 51
241.67608642578125
  0
ARC
  8
_1-1_
  6
CONTINUOUS
 62
    7
 10
862.59499921761881
 20
669.69837556934726
 40
0.861181964285125
 50
235.60836791992187
 51
238.70606994628906
  0
ARC
  8
_1-1_
  6
CONTINUOUS
 62
    7
 10
862.57251489116413
 20
669.66565518765833
 40
0.821501529815114
 50
232.369384765625
 51
235.60836791992187
  0
ARC
  8
_1-1_
  6
CONTINUOUS
 62
    7
 10
862.45563138866044
 20
669.52130056256021
 40
0.6358386787611085
 50
228.97610473632812
 51
232.369384765625
  0
ARC
  8
_1-1_
  6
CONTINUOUS
 62
    7
 10
862.57715173669749
 20
669.66534898087787
 40
0.8242573054025531
 50
226.763671875
 51
228.9761047363281
  0
ARC
  8
_1-1_
  6
CONTINUOUS
 62
    7
 10
878.46700896627658
 20
603.96815929633772
 40
25.000001067820662
 50
28.685394287109375
 51
151.31459045410156
  0
ARC
  8
_1-1_
  6
CONTINUOUS
 62
    7
 10
878.46700896627658
 20
603.96815929633772
 40
25.000001067820662
 50
208.68539428710937
 51
331.31459045410156
  0
TEXT
  8
_0-0_
 62
    6
 10
2194.5662244406449
 20
1784.0835359197786
 40
100
 41
1
 50
0
  1
BX-5721_
  0
POINT
  8
_1-1_
 62
    7
 10
1408.0125288797622
 20
602.98068617301556
  0
ENDSEC
  0
EOF
