  0
SECTION
  2
HEADER
  9
$ACADVER
  1
AC1015
  9
$ACADMAINTVER
 70
               6
  9
$DWGCODEPAGE
  3
ANSI_932
  9
$INSBASE
 10
0.0
 20
0.0
 30
0.0
  9
$EXTMIN
 10
216.6387840678326
 20
70.806823688686563
 30
-14.834305555555554
  9
$EXTMAX
 10
2840.0
 20
1862.6973284113378
 30
14.834305555555554
  9
$LIMMIN
 10
0.0
 20
0.0
  9
$LIMMAX
 10
0.0
 20
0.0
  9
$ORTHOMODE
 70
               0
  9
$REGENMODE
 70
               1
  9
$FILLMODE
 70
               1
  9
$QTEXTMODE
 70
               0
  9
$MIRRTEXT
 70
               1
  9
$LTSCALE
 40
50.799999999999997
  9
$ATTMODE
 70
               1
  9
$TEXTSIZE
 40
0.2
  9
$TRACEWID
 40
1.0
  9
$TEXTSTYLE
  7
Standard
  9
$CLAYER
  8
一般
  9
$CELTYPE
  6
Continuous
  9
$CECOLOR
 62
             256
  9
$CELTSCALE
 40
1.0
  9
$DISPSILH
 70
               0
  9
$DIMSCALE
 40
1.0
  9
$DIMASZ
 40
0.18
  9
$DIMEXO
 40
0.0625
  9
$DIMDLI
 40
0.38
  9
$DIMRND
 40
0.0
  9
$DIMDLE
 40
0.0
  9
$DIMEXE
 40
0.18
  9
$DIMTP
 40
0.0
  9
$DIMTM
 40
0.0
  9
$DIMTXT
 40
0.18
  9
$DIMCEN
 40
0.09
  9
$DIMTSZ
 40
0.0
  9
$DIMTOL
 70
               0
  9
$DIMLIM
 70
               0
  9
$DIMTIH
 70
               1
  9
$DIMTOH
 70
               1
  9
$DIMSE1
 70
               0
  9
$DIMSE2
 70
               0
  9
$DIMTAD
 70
               0
  9
$DIMZIN
 70
               0
  9
$DIMBLK
  1

  9
$DIMASO
 70
               1
  9
$DIMSHO
 70
               1
  9
$DIMPOST
  1

  9
$DIMAPOST
  1

  9
$DIMALT
 70
               0
  9
$DIMALTD
 70
               2
  9
$DIMALTF
 40
25.399999999999999
  9
$DIMLFAC
 40
1.0
  9
$DIMTOFL
 70
               0
  9
$DIMTVP
 40
0.0
  9
$DIMTIX
 70
               0
  9
$DIMSOXD
 70
               0
  9
$DIMSAH
 70
               0
  9
$DIMBLK1
  1

  9
$DIMBLK2
  1

  9
$DIMSTYLE
  2
Standard
  9
$DIMCLRD
 70
               0
  9
$DIMCLRE
 70
               0
  9
$DIMCLRT
 70
               0
  9
$DIMTFAC
 40
1.0
  9
$DIMGAP
 40
0.09
  9
$DIMJUST
 70
               0
  9
$DIMSD1
 70
               0
  9
$DIMSD2
 70
               0
  9
$DIMTOLJ
 70
               1
  9
$DIMTZIN
 70
               0
  9
$DIMALTZ
 70
               0
  9
$DIMALTTZ
 70
               0
  9
$DIMUPT
 70
               0
  9
$DIMDEC
 70
               4
  9
$DIMTDEC
 70
               4
  9
$DIMALTU
 70
               2
  9
$DIMALTTD
 70
               2
  9
$DIMTXSTY
  7
Standard
  9
$DIMAUNIT
 70
               0
  9
$DIMADEC
 70
               0
  9
$DIMALTRND
 40
0.0
  9
$DIMAZIN
 70
               0
  9
$DIMDSEP
 70
               0
  9
$DIMATFIT
 70
               3
  9
$DIMFRAC
 70
               0
  9
$DIMLDRBLK
  1

  9
$DIMLUNIT
 70
               2
  9
$DIMLWD
 70
               0
  9
$DIMLWE
 70
               0
  9
$DIMTMOVE
 70
               0
  9
$LUNITS
 70
               2
  9
$LUPREC
 70
               4
  9
$SKETCHINC
 40
0.1
  9
$FILLETRAD
 40
0.0
  9
$AUNITS
 70
               0
  9
$AUPREC
 70
               0
  9
$MENU
  1
acad
  9
$ELEVATION
 40
0.0
  9
$PELEVATION
 40
0.0
  9
$THICKNESS
 40
0.0
  9
$LIMCHECK
 70
               0
  9
$CHAMFERA
 40
0.0
  9
$CHAMFERB
 40
0.0
  9
$CHAMFERC
 40
0.0
  9
$CHAMFERD
 40
0.0
  9
$SKPOLY
 70
               0
  9
$TDCREATE
 40
2457059.555706019
  9
$TDUCREATE
 40
0.000000000
  9
$TDUPDATE
 40
2457059.555706019
  9
$TDUUPDATE
 40
0.000000000
  9
$TDINDWG
 40
0.0000000000
  9
$TDUSRTIMER
 40
0.0000000000
  9
$USRTIMER
 70
               1
  9
$ANGBASE
 50
0.0
  9
$ANGDIR
 70
               0
  9
$PDMODE
 70
               1
  9
$PDSIZE
 40
-2.0
  9
$PLINEWID
 40
0.0
  9
$SPLFRAME
 70
               0
  9
$SPLINETYPE
 70
               6
  9
$SPLINESEGS
 70
               8
  9
$HANDSEED
  5
1B0
  9
$SURFTAB1
 70
               6
  9
$SURFTAB2
 70
               6
  9
$SURFTYPE
 70
               6
  9
$SURFU
 70
               6
  9
$SURFV
 70
               6
  9
$UCSBASE
  2

  9
$UCSNAME
  2

  9
$UCSORG
 10
0.0
 20
0.0
 30
0.0
  9
$UCSXDIR
 10
1.0
 20
0.0
 30
0.0
  9
$UCSYDIR
 10
0.0
 20
1.0
 30
0.0
  9
$UCSORTHOREF
  2

  9
$UCSORTHOVIEW
 70
               0
  9
$UCSORGTOP
 10
0.0
 20
0.0
 30
0.0
  9
$UCSORGBOTTOM
 10
0.0
 20
0.0
 30
0.0
  9
$UCSORGLEFT
 10
0.0
 20
0.0
 30
0.0
  9
$UCSORGRIGHT
 10
0.0
 20
0.0
 30
0.0
  9
$UCSORGFRONT
 10
0.0
 20
0.0
 30
0.0
  9
$UCSORGBACK
 10
0.0
 20
0.0
 30
0.0
  9
$PUCSBASE
  2

  9
$PUCSNAME
  2

  9
$PUCSORG
 10
0.0
 20
0.0
 30
0.0
  9
$PUCSXDIR
 10
1.0
 20
0.0
 30
0.0
  9
$PUCSYDIR
 10
0.0
 20
1.0
 30
0.0
  9
$PUCSORTHOREF
  2

  9
$PUCSORTHOVIEW
 70
               0
  9
$PUCSORGTOP
 10
0.0
 20
0.0
 30
0.0
  9
$PUCSORGBOTTOM
 10
0.0
 20
0.0
 30
0.0
  9
$PUCSORGLEFT
 10
0.0
 20
0.0
 30
0.0
  9
$PUCSORGRIGHT
 10
0.0
 20
0.0
 30
0.0
  9
$PUCSORGFRONT
 10
0.0
 20
0.0
 30
0.0
  9
$PUCSORGBACK
 10
0.0
 20
0.0
 30
0.0
  9
$USERI1
 70
               0
  9
$USERI2
 70
               0
  9
$USERI3
 70
               0
  9
$USERI4
 70
               0
  9
$USERI5
 70
               0
  9
$USERR1
 40
0.0
  9
$USERR2
 40
0.0
  9
$USERR3
 40
0.0
  9
$USERR4
 40
0.0
  9
$USERR5
 40
0.0
  9
$WORLDVIEW
 70
               1
  9
$SHADEDGE
 70
               3
  9
$SHADEDIF
 70
              70
  9
$TILEMODE
 70
               1
  9
$MAXACTVP
 70
              64
  9
$PINSBASE
 10
0.0
 20
0.0
 30
0.0
  9
$PLIMCHECK
 70
               0
  9
$PEXTMIN
 10
1.0000000000000000E+20
 20
1.0000000000000000E+20
 30
1.0000000000000000E+20
  9
$PEXTMAX
 10
-1.0000000000000000E+20
 20
-1.0000000000000000E+20
 30
-1.0000000000000000E+20
  9
$PLIMMIN
 10
0.0
 20
0.0
  9
$PLIMMAX
 10
12.0
 20
9.0
  9
$UNITMODE
 70
               0
  9
$VISRETAIN
 70
               0
  9
$PLINEGEN
 70
               1
  9
$PSLTSCALE
 70
               0
  9
$TREEDEPTH
 70
            3020
  9
$CMLSTYLE
  2
Standard
  9
$CMLJUST
 70
               0
  9
$CMLSCALE
 40
1.0
  9
$PROXYGRAPHICS
 70
               0
  9
$MEASUREMENT
 70
               1
  9
$CELWEIGHT
370
               0
  9
$ENDCAPS
280
               0
  9
$JOINSTYLE
280
               0
  9
$LWDISPLAY
290
               1
  9
$INSUNITS
 70
               4
  9
$HYPERLINKBASE
  1

  9
$STYLESHEET
  1

  9
$XEDIT
290
               1
  9
$CEPSNTYPE
380
               0
  9
$PSTYLEMODE
290
               1
  9
$FINGERPRINTGUID
  2

  9
$VERSIONGUID
  2

  9
$EXTNAMES
290
               1
  9
$PSVPSCALE
 40
0.0
  0
ENDSEC
  0
SECTION
  2
CLASSES
  0
CLASS
  1
LWPOLYLINE
  2
AcDbPolyline
  3
AutoCAD 2000
 90
        0
280
               0
281
               1
  0
CLASS
  1
IMAGE
  2
AcDbRasterImage
  3
ISM
 90
    32895
280
               0
281
               1
  0
CLASS
  1
OLE2FRAME
  2
AcDbOle2Frame
  3
AutoCAD 2000
 90
    32768
280
               0
281
               1
  0
CLASS
  1
HATCH
  2
AcDbHatch
  3
AutoCAD 2000
 90
    32768
280
               0
281
               1
  0
CLASS
  1
DICTIONARYVAR
  2
AcDbDictionaryVar
  3
AutoCAD 2000
 90
    32768
280
               0
281
               0
  0
CLASS
  1
RASTERVARIABLES
  2
AcDbRasterVariables
  3
ISM
 90
    32768
280
               0
281
               0
  0
CLASS
  1
IMAGEDEF
  2
AcDbRasterImageDef
  3
ISM
 90
    32768
280
               0
281
               0
  0
CLASS
  1
IMAGEDEF_REACTOR
  2
AcDbRasterImageDefReactor
  3
ISM
 90
    32769
280
               0
281
               0
  0
CLASS
  1
IDBUFFER
  2
AcDbIdBuffer
  3
AutoCAD 2000
 90
    32768
280
               0
281
               0
  0
CLASS
  1
SPATIAL_FILTER
  2
AcDbSpatialFilter
  3
AutoCAD 2000
 90
    32768
280
               0
281
               0
  0
CLASS
  1
XRECORD
  2
AcDbXrecord
  3
AutoCAD 2000
 90
    32768
280
               0
281
               0
  0
CLASS
  1
SORTENTSTABLE
  2
AcDbSortentsTable
  3
AutoCAD 2000
 90
    32768
280
               0
281
               0
  0
CLASS
  1
LAYER_INDEX
  2
AcDbLayerIndex
  3
AutoCAD 2000
 90
    32768
280
               0
281
               0
  0
CLASS
  1
SPATIAL_INDEX
  2
AcDbSpatialIndex
  3
AutoCAD 2000
 90
    32768
280
               0
281
               0
  0
CLASS
  1
OBJECT_PTR
  2
CAseDLPNTableRecord
  3
"ASE-LPNTableRecord"
 90
    32769
280
               0
281
               0
  0
CLASS
  1
LAYOUT
  2
AcDbLayout
  3
AutoCAD 2000
 90
        0
280
               0
281
               0
  0
CLASS
  1
PLOTSETTINGS
  2
AcDbPlotSettings
  3
AutoCAD 2000
 90
    32768
280
               0
281
               0
  0
CLASS
  1
ACDBDICTIONARYWDFLT
  2
AcDbDictionaryWithDefault
  3
AutoCAD 2000
 90
        0
280
               0
281
               0
  0
CLASS
  1
ACDBPLACEHOLDER
  2
AcDbPlaceHolder
  3
AutoCAD 2000
 90
        0
280
               0
281
               0
  0
CLASS
  1
VBA_PROJECT
  2
AcDbVbaProject
  3
acadvba
 90
    32768
280
               0
281
               0
  0
CLASS
  1
WIPEOUT
  2
AcDbWipeout
  3
WipeOut|AutoCAD Express Tool|expresstools@autodesk.com
 90
    32895
280
               0
281
               1
  0
CLASS
  1
WIPEOUTVARIABLES
  2
AcDbWipeoutVariables
  3
WipeOut|AutoCAD Express Tool|expresstools@autodesk.com
 90
        0
280
               0
281
               0
  0
CLASS
  1
RTEXT
  2
RText
  3
RText|AutoCAD Express Tool|expresstools@autodesk.com
 90
    32768
280
               0
281
               1
  0
CLASS
  1
ARCALIGNEDTEXT
  2
AcDbArcAlignedText
  3
ATEXT|AutoCAD Express Tool|expresstools@autodesk.com
 90
    32768
280
               0
281
               1
  0
ENDSEC
  0
SECTION
  2
TABLES
  0
TABLE
  2
VPORT
  5
7
100
AcDbSymbolTable
 70
               1
  0
VPORT
  5
15
100
AcDbSymbolTableRecord
100
AcDbViewportTableRecord
  2
*ACTIVE
 70
               0
 10
0.0
 20
0.0
 11
1.0
 21
1.0
 12
1528.3193920339163
 22
966.75207605001219
 13
0.0
 23
0.0
 14
1.0
 24
1.0
 15
0.0
 25
0.0
 16
0.0
 26
0.0
 36
1.0
 17
0.0
 27
0.0
 37
0.0
 40
1791.8905047226513
 41
0.688564
 42
50.0
 43
0.0
 44
0.0
 50
0.0
 51
0.0
 71
               0
 72
            2000
 73
               1
 74
               1
 75
               0
 76
               0
 77
               0
 78
               0
281
               0
 65
               0
110
0.0
120
0.0
130
0.0
111
1.0
121
0.0
131
0.0
112
0.0
122
1.0
132
0.0
345
0
346
0
 79
               0
146
0.0
  0
ENDTAB
  0
TABLE
  2
LTYPE
  5
4
100
AcDbSymbolTable
 70
              13
  0
LTYPE
  5
11
100
AcDbSymbolTableRecord
100
AcDbLinetypeTableRecord
  2
ByBlock
 70
              64
  3

 72
              65
 73
               0
 40
0.0
  0
LTYPE
  5
12
100
AcDbSymbolTableRecord
100
AcDbLinetypeTableRecord
  2
ByLayer
 70
              64
  3

 72
              65
 73
               0
 40
0.0
  0
LTYPE
  5
13
100
AcDbSymbolTableRecord
100
AcDbLinetypeTableRecord
  2
Continuous
 70
              64
  3
Solid line
 72
              65
 73
               0
 40
0.0
  0
LTYPE
  5
2F
100
AcDbSymbolTableRecord
100
AcDbLinetypeTableRecord
  2
STYLE_01
 70
               0
  3

 72
              65
 73
               2
 40
0.41664
 49
0.20828
 74
               0
 49
-0.20836
 74
               0
  0
LTYPE
  5
30
100
AcDbSymbolTableRecord
100
AcDbLinetypeTableRecord
  2
STYLE_02
 70
               0
  3

 72
              65
 73
               2
 40
0.6944250000000001
 49
0.48607
 74
               0
 49
-0.2083550000000001
 74
               0
  0
LTYPE
  5
31
100
AcDbSymbolTableRecord
100
AcDbLinetypeTableRecord
  2
STYLE_03
 70
               0
  3

 72
              65
 73
               2
 40
1.25
 49
1.0416400000000001
 74
               0
 49
-0.2083599999999999
 74
               0
  0
LTYPE
  5
32
100
AcDbSymbolTableRecord
100
AcDbLinetypeTableRecord
  2
STYLE_04
 70
               0
  3

 72
              65
 73
               2
 40
1.5277099999999999
 49
1.3194249999999998
 74
               0
 49
-0.208285
 74
               0
  0
LTYPE
  5
33
100
AcDbSymbolTableRecord
100
AcDbLinetypeTableRecord
  2
STYLE_05
 70
               0
  3

 72
              65
 73
               2
 40
0.20828
 49
0.069425
 74
               0
 49
-0.138855
 74
               0
  0
LTYPE
  5
34
100
AcDbSymbolTableRecord
100
AcDbLinetypeTableRecord
  2
STYLE_06
 70
               0
  3

 72
              65
 73
               4
 40
1.0416400000000001
 49
0.625
 74
               0
 49
-0.20828
 74
               0
 49
0.06943
 74
               0
 49
-0.13893
 74
               0
  0
LTYPE
  5
35
100
AcDbSymbolTableRecord
100
AcDbLinetypeTableRecord
  2
STYLE_07
 70
               0
  3

 72
              65
 73
               6
 40
1.875
 49
0.625
 74
               0
 49
-0.20828
 74
               0
 49
0.6250000000000001
 74
               0
 49
-0.2083599999999999
 74
               0
 49
0.06943
 74
               0
 49
-0.1389299999999999
 74
               0
  0
LTYPE
  5
36
100
AcDbSymbolTableRecord
100
AcDbLinetypeTableRecord
  2
STYLE_08
 70
               0
  3

 72
              65
 73
               6
 40
1.25
 49
0.625
 74
               0
 49
-0.20828
 74
               0
 49
0.06943
 74
               0
 49
-0.13893
 74
               0
 49
0.0694299999999999
 74
               0
 49
-0.13893
 74
               0
  0
LTYPE
  5
37
100
AcDbSymbolTableRecord
100
AcDbLinetypeTableRecord
  2
STYLE_09
 70
               0
  3

 72
              65
 73
               4
 40
5.0
 49
3.75
 74
               0
 49
-0.2777849999999998
 74
               0
 49
0.6944300000000003
 74
               0
 49
-0.2777849999999998
 74
               0
  0
LTYPE
  5
38
100
AcDbSymbolTableRecord
100
AcDbLinetypeTableRecord
  2
STYLE_10
 70
               0
  3

 72
              65
 73
               6
 40
5.9375
 49
3.75
 74
               0
 49
-0.2777849999999998
 74
               0
 49
0.6944300000000003
 74
               0
 49
-0.2777849999999998
 74
               0
 49
0.625
 74
               0
 49
-0.3125
 74
               0
  0
ENDTAB
  0
TABLE
  2
LAYER
  5
2
100
AcDbSymbolTable
 70
               4
  0
LAYER
  5
14
100
AcDbSymbolTableRecord
100
AcDbLayerTableRecord
  2
0
 70
               0
 62
               7
  6
Continuous
290
               1
370
              -3
390
1D
  0
LAYER
  5
39
100
AcDbSymbolTableRecord
100
AcDbLayerTableRecord
  2
一般
 70
               0
 62
               7
  6
Continuous
290
               1
370
               5
390
1D
  0
LAYER
  5
3A
100
AcDbSymbolTableRecord
100
AcDbLayerTableRecord
  2
寸法
 70
               0
 62
               7
  6
Continuous
290
               1
370
               5
390
1D
  0
LAYER
  5
3B
100
AcDbSymbolTableRecord
100
AcDbLayerTableRecord
  2
排水
 70
               0
 62
               7
  6
Continuous
290
               1
370
              15
390
1D
  0
ENDTAB
  0
TABLE
  2
STYLE
  5
3
100
AcDbSymbolTable
 70
               3
  0
STYLE
  5
17
100
AcDbSymbolTableRecord
100
AcDbTextStyleTableRecord
  2
Standard
 70
               0
 40
0.0
 41
1.0
 50
0.0
 71
               0
 42
0.0
  3
txt
  4
BIGFONT.SHX
  0
STYLE
  5
2D
100
AcDbSymbolTableRecord
100
AcDbTextStyleTableRecord
  2
Arial
 70
               0
 40
0.0
 41
1.0
 50
0.0
 71
               0
 42
0.0
  3

  4
Arial
1001
ACAD
1000
Arial
1071
        0
  0
STYLE
  5
2E
100
AcDbSymbolTableRecord
100
AcDbTextStyleTableRecord
  2
ＭＳ ゴシック
 70
               0
 40
0.0
 41
1.0
 50
0.0
 71
               0
 42
0.0
  3

  4
ＭＳ ゴシック
1001
ACAD
1000
ＭＳ ゴシック
1071
        0
  0
ENDTAB
  0
TABLE
  2
VIEW
  5
5
100
AcDbSymbolTable
 70
               0
  0
ENDTAB
  0
TABLE
  2
UCS
  5
6
100
AcDbSymbolTable
 70
               0
  0
ENDTAB
  0
TABLE
  2
APPID
  5
8
100
AcDbSymbolTable
 70
               1
  0
APPID
  5
16
100
AcDbSymbolTableRecord
100
AcDbRegAppTableRecord
  2
ACAD
 70
               0
  0
ENDTAB
  0
TABLE
  2
DIMSTYLE
  5
9
100
AcDbSymbolTable
 70
               1
100
AcDbDimStyleTable
 71
               0
  0
DIMSTYLE
105
18
100
AcDbSymbolTableRecord
100
AcDbDimStyleTableRecord
  2
Standard
 70
               0
  3

  4

 40
1.0
 41
0.18
 42
0.0625
 43
0.38
 44
0.18
 45
0.0
 46
0.0
 47
0.0
 48
0.0
 71
               0
 72
               0
 73
               1
 74
               1
 75
               0
 76
               0
 77
               0
 78
               0
 79
               0
140
0.18
141
0.09
142
0.0
143
25.399999999999999
144
1.0
145
0.0
146
1.0
147
0.09
148
0.0
170
               0
171
               2
172
               0
173
               0
174
               0
175
               0
176
               0
177
               0
178
               0
179
               0
271
               4
272
               4
273
               2
274
               2
275
               0
276
               0
277
               2
278
              46
279
               0
280
               0
281
               0
282
               0
283
               1
284
               0
285
               0
286
               0
288
               0
340
17
341
0
342
0
343
0
344
0
371
              -2
372
              -2
  0
ENDTAB
  0
TABLE
  2
BLOCK_RECORD
  5
1
100
AcDbSymbolTable
 70
               9
  0
BLOCK_RECORD
  5
A
100
AcDbSymbolTableRecord
100
AcDbBlockTableRecord
  2
*MODEL_SPACE
340
20
  0
BLOCK_RECORD
  5
B
100
AcDbSymbolTableRecord
100
AcDbBlockTableRecord
  2
*PAPER_SPACE
340
21
  0
BLOCK_RECORD
  5
24
100
AcDbSymbolTableRecord
100
AcDbBlockTableRecord
  2
グループ
340
0
102
{BLKREFS
331
49
102
}
  0
BLOCK_RECORD
  5
25
100
AcDbSymbolTableRecord
100
AcDbBlockTableRecord
  2
スケール1：5
340
0
102
{BLKREFS
331
1AC
102
}
  0
BLOCK_RECORD
  5
26
100
AcDbSymbolTableRecord
100
AcDbBlockTableRecord
  2
グループ-1
340
0
102
{BLKREFS
331
120
102
}
  0
BLOCK_RECORD
  5
27
100
AcDbSymbolTableRecord
100
AcDbBlockTableRecord
  2
グループ-2
340
0
102
{BLKREFS
331
121
102
}
  0
BLOCK_RECORD
  5
28
100
AcDbSymbolTableRecord
100
AcDbBlockTableRecord
  2
グループ-3
340
0
102
{BLKREFS
331
1AD
102
}
  0
BLOCK_RECORD
  5
29
100
AcDbSymbolTableRecord
100
AcDbBlockTableRecord
  2
グループ-4
340
0
102
{BLKREFS
331
1AE
102
}
  0
BLOCK_RECORD
  5
2A
100
AcDbSymbolTableRecord
100
AcDbBlockTableRecord
  2
グループ-5
340
0
102
{BLKREFS
331
1A8
102
}
  0
BLOCK_RECORD
  5
2B
100
AcDbSymbolTableRecord
100
AcDbBlockTableRecord
  2
グループ-6
340
0
102
{BLKREFS
331
1A9
102
}
  0
BLOCK_RECORD
  5
2C
100
AcDbSymbolTableRecord
100
AcDbBlockTableRecord
  2
グループ-7
340
0
102
{BLKREFS
331
1AF
102
}
  0
ENDTAB
  0
ENDSEC
  0
SECTION
  2
BLOCKS
  0
BLOCK
  5
D
100
AcDbEntity
  8
0
100
AcDbBlockBegin
  2
*MODEL_SPACE
 70
               0
 10
0.0
 20
0.0
 30
0.0
  3
*MODEL_SPACE
  1

  0
ENDBLK
  5
E
100
AcDbEntity
  8
0
100
AcDbBlockEnd
  0
BLOCK
  5
F
100
AcDbEntity
 67
               1
  8
0
100
AcDbBlockBegin
  2
*PAPER_SPACE
 70
               0
 10
0.0
 20
0.0
 30
0.0
  3
*PAPER_SPACE
  1

  0
ENDBLK
  5
10
100
AcDbEntity
 67
               1
  8
0
100
AcDbBlockEnd
  0
BLOCK
  5
3C
100
AcDbEntity
  8
一般
100
AcDbBlockBegin
  2
グループ
 70
               0
 10
0.0
 20
0.0
 30
0.0
  3
グループ
  1

  0
MTEXT
  5
3D
100
AcDbEntity
  8
一般
 62
               8
100
AcDbMText
 10
-61.590303983041849
 20
8.3342057291666851
 30
0.0
 40
8.1442057291666661
 41
7.3612159321675676
 71
               1
 72
               1
  1
0
  7
ＭＳ ゴシック
 73
               1
 44
0.7828267384257843
  0
MTEXT
  5
3E
100
AcDbEntity
  8
一般
 62
               8
100
AcDbMText
 10
-12.909696016958151
 20
8.3342057291666851
 30
0.0
 40
8.1442057291666661
 41
12.75
 71
               1
 72
               1
  1
50
  7
ＭＳ ゴシック
 73
               1
 44
0.7828267384257843
  0
MTEXT
  5
3F
100
AcDbEntity
  8
一般
 62
               8
100
AcDbMText
 10
33.590303983041849
 20
8.3342057291666851
 30
0.0
 40
8.1442057291666661
 41
27.999999999999972
 71
               1
 72
               1
  1
100mm
  7
ＭＳ ゴシック
 73
               1
 44
0.7828267384257843
  0
LINE
  5
40
100
AcDbEntity
  8
寸法
370
              15
 62
               8
100
AcDbLine
 10
-7.9096960169581507
 20
-1.2916666666666288
 30
0.0
 11
-7.9096960169581507
 21
-9.2916666666666288
 31
0.0
  0
POLYLINE
  5
41
100
AcDbEntity
  8
一般
370
              15
  6
Continuous
 62
               8
100
AcDb2dPolyline
 66
               1
 10
0.0
 20
0.0
 30
0.0
 75
               5
  0
VERTEX
  5
42
100
AcDbEntity
  8
一般
370
              15
  6
Continuous
 62
               8
100
AcDbVertex
100
AcDb2dVertex
 10
-57.909696016958151
 20
-1.2916666666666288
 30
0.0
  0
VERTEX
  5
43
100
AcDbEntity
  8
一般
370
              15
  6
Continuous
 62
               8
100
AcDbVertex
100
AcDb2dVertex
 10
-57.909696016958151
 20
-9.2916666666666288
 30
0.0
  0
VERTEX
  5
44
100
AcDbEntity
  8
一般
370
              15
  6
Continuous
 62
               8
100
AcDbVertex
100
AcDb2dVertex
 10
42.090303983041849
 20
-9.2916666666666288
 30
0.0
  0
VERTEX
  5
45
100
AcDbEntity
  8
一般
370
              15
  6
Continuous
 62
               8
100
AcDbVertex
100
AcDb2dVertex
 10
42.090303983041849
 20
-1.2916666666666288
 30
0.0
  0
SEQEND
  5
46
100
AcDbEntity
  8
一般
370
              15
  6
Continuous
 62
               8
  0
ENDBLK
  5
47
100
AcDbEntity
  8
一般
100
AcDbBlockEnd
  0
BLOCK
  5
48
100
AcDbEntity
  8
一般
100
AcDbBlockBegin
  2
スケール1：5
 70
               0
 10
0.0
 20
0.0
 30
0.0
  3
スケール1：5
  1

  0
INSERT
  5
49
100
AcDbEntity
  8
一般
 62
               7
100
AcDbBlockReference
  2
グループ
 10
0.0
 20
0.0
 30
0.0
  0
ENDBLK
  5
4A
100
AcDbEntity
  8
一般
100
AcDbBlockEnd
  0
BLOCK
  5
4B
100
AcDbEntity
  8
一般
100
AcDbBlockBegin
  2
グループ-1
 70
               0
 10
0.0
 20
0.0
 30
0.0
  3
グループ-1
  1

  0
LINE
  5
4C
100
AcDbEntity
  8
一般
370
               5
  6
Continuous
 62
               7
100
AcDbLine
 10
-455.75
 20
92.256251988412515
 30
0.0
 11
-455.75
 21
91.195387112424669
 31
0.0
  0
LINE
  5
4D
100
AcDbEntity
  8
一般
370
               5
  6
Continuous
 62
               7
100
AcDbLine
 10
-455.75
 20
90.195387112424669
 30
0.0
 11
-455.75
 21
89.195387112424669
 31
0.0
  0
LINE
  5
4E
100
AcDbEntity
  8
一般
370
               5
  6
Continuous
 62
               7
100
AcDbLine
 10
-455.75
 20
88.195387112424669
 30
0.0
 11
-455.75
 21
87.195387112424669
 31
0.0
  0
LINE
  5
4F
100
AcDbEntity
  8
一般
370
               5
  6
Continuous
 62
               7
100
AcDbLine
 10
-455.75
 20
86.195387112424669
 30
0.0
 11
-455.75
 21
85.195387112424669
 31
0.0
  0
LINE
  5
50
100
AcDbEntity
  8
一般
370
               5
  6
Continuous
 62
               7
100
AcDbLine
 10
-455.75
 20
84.195387112424669
 30
0.0
 11
-455.75
 21
83.195387112424669
 31
0.0
  0
LINE
  5
51
100
AcDbEntity
  8
一般
370
               5
  6
Continuous
 62
               7
100
AcDbLine
 10
-455.75
 20
82.195387112424669
 30
0.0
 11
-455.75
 21
81.195387112424669
 31
0.0
  0
LINE
  5
52
100
AcDbEntity
  8
一般
370
               5
  6
Continuous
 62
               7
100
AcDbLine
 10
-455.75
 20
80.195387112424669
 30
0.0
 11
-455.75
 21
79.195387112424669
 31
0.0
  0
LINE
  5
53
100
AcDbEntity
  8
一般
370
               5
  6
Continuous
 62
               7
100
AcDbLine
 10
-455.75
 20
78.195387112424669
 30
0.0
 11
-455.75
 21
77.195387112424669
 31
0.0
  0
LINE
  5
54
100
AcDbEntity
  8
一般
370
               5
  6
Continuous
 62
               7
100
AcDbLine
 10
-455.75
 20
76.195387112424669
 30
0.0
 11
-455.75
 21
75.195387112424669
 31
0.0
  0
LINE
  5
55
100
AcDbEntity
  8
一般
370
               5
  6
Continuous
 62
               7
100
AcDbLine
 10
-455.75
 20
74.195387112424669
 30
0.0
 11
-455.75
 21
73.195387112424669
 31
0.0
  0
LINE
  5
56
100
AcDbEntity
  8
一般
370
               5
  6
Continuous
 62
               7
100
AcDbLine
 10
-455.75
 20
72.195387112424669
 30
0.0
 11
-455.75
 21
71.195387112424669
 31
0.0
  0
LINE
  5
57
100
AcDbEntity
  8
一般
370
               5
  6
Continuous
 62
               7
100
AcDbLine
 10
-458.25
 20
71.195387112424669
 30
0.0
 11
-458.25
 21
72.195387112424669
 31
0.0
  0
LINE
  5
58
100
AcDbEntity
  8
一般
370
               5
  6
Continuous
 62
               7
100
AcDbLine
 10
-458.25
 20
73.195387112424669
 30
0.0
 11
-458.25
 21
74.195387112424669
 31
0.0
  0
LINE
  5
59
100
AcDbEntity
  8
一般
370
               5
  6
Continuous
 62
               7
100
AcDbLine
 10
-458.25
 20
75.195387112424669
 30
0.0
 11
-458.25
 21
76.195387112424669
 31
0.0
  0
LINE
  5
5A
100
AcDbEntity
  8
一般
370
               5
  6
Continuous
 62
               7
100
AcDbLine
 10
-458.25
 20
77.195387112424669
 30
0.0
 11
-458.25
 21
78.195387112424669
 31
0.0
  0
LINE
  5
5B
100
AcDbEntity
  8
一般
370
               5
  6
Continuous
 62
               7
100
AcDbLine
 10
-458.25
 20
79.195387112424669
 30
0.0
 11
-458.25
 21
80.195387112424669
 31
0.0
  0
LINE
  5
5C
100
AcDbEntity
  8
一般
370
               5
  6
Continuous
 62
               7
100
AcDbLine
 10
-458.25
 20
81.195387112424669
 30
0.0
 11
-458.25
 21
82.195387112424669
 31
0.0
  0
LINE
  5
5D
100
AcDbEntity
  8
一般
370
               5
  6
Continuous
 62
               7
100
AcDbLine
 10
-458.25
 20
83.195387112424669
 30
0.0
 11
-458.25
 21
84.195387112424669
 31
0.0
  0
LINE
  5
5E
100
AcDbEntity
  8
一般
370
               5
  6
Continuous
 62
               7
100
AcDbLine
 10
-458.25
 20
85.195387112424669
 30
0.0
 11
-458.25
 21
86.195387112424669
 31
0.0
  0
LINE
  5
5F
100
AcDbEntity
  8
一般
370
               5
  6
Continuous
 62
               7
100
AcDbLine
 10
-458.25
 20
87.195387112424669
 30
0.0
 11
-458.25
 21
88.195387112424669
 31
0.0
  0
LINE
  5
60
100
AcDbEntity
  8
一般
370
               5
  6
Continuous
 62
               7
100
AcDbLine
 10
-458.25
 20
89.195387112424669
 30
0.0
 11
-458.25
 21
90.195387112424669
 31
0.0
  0
LINE
  5
61
100
AcDbEntity
  8
一般
370
               5
  6
Continuous
 62
               7
100
AcDbLine
 10
-458.25
 20
91.195387112424669
 30
0.0
 11
-458.25
 21
92.256251988412515
 31
0.0
  0
POLYLINE
  5
62
100
AcDbEntity
  8
一般
370
               5
  6
Continuous
 62
               7
100
AcDb2dPolyline
 66
               1
 10
0.0
 20
0.0
 30
0.0
 75
               5
  0
VERTEX
  5
63
100
AcDbEntity
  8
一般
370
               5
  6
Continuous
 62
               7
100
AcDbVertex
100
AcDb2dVertex
 10
-453.57118155292267
 20
65.410630967881758
 30
0.0
  0
VERTEX
  5
64
100
AcDbEntity
  8
一般
370
               5
  6
Continuous
 62
               7
100
AcDbVertex
100
AcDb2dVertex
 10
-453.0
 20
64.421315497873593
 30
0.0
  0
VERTEX
  5
65
100
AcDbEntity
  8
一般
370
               5
  6
Continuous
 62
               7
100
AcDbVertex
100
AcDb2dVertex
 10
-461.0
 20
64.421315497873593
 30
0.0
  0
VERTEX
  5
66
100
AcDbEntity
  8
一般
370
               5
  6
Continuous
 62
               7
100
AcDbVertex
100
AcDb2dVertex
 10
-460.39207623602687
 20
65.474270344203546
 30
0.0
  0
SEQEND
  5
67
100
AcDbEntity
  8
一般
370
               5
  6
Continuous
 62
               7
  0
LINE
  5
68
100
AcDbEntity
  8
一般
370
               5
  6
Continuous
 62
               7
100
AcDbLine
 10
-457.0
 20
94.421315497873593
 30
0.0
 11
-458.25
 21
92.256251988412515
 31
0.0
  0
LINE
  5
69
100
AcDbEntity
  8
一般
370
               5
  6
Continuous
 62
               7
100
AcDbLine
 10
-457.0
 20
94.421315497873593
 30
0.0
 11
-455.75
 21
92.256251988412515
 31
0.0
  0
POLYLINE
  5
6A
100
AcDbEntity
  8
一般
370
               5
  6
Continuous
 62
               7
100
AcDb2dPolyline
 66
               1
 10
0.0
 20
0.0
 30
0.0
 75
               5
  0
VERTEX
  5
6B
100
AcDbEntity
  8
一般
370
               5
  6
Continuous
 62
               7
100
AcDbVertex
100
AcDb2dVertex
 10
-455.5
 20
70.410630967881787
 30
0.0
  0
VERTEX
  5
6C
100
AcDbEntity
  8
一般
370
               5
  6
Continuous
 62
               7
100
AcDbVertex
100
AcDb2dVertex
 10
-455.5
 20
71.195387112424669
 30
0.0
  0
VERTEX
  5
6D
100
AcDbEntity
  8
一般
370
               5
  6
Continuous
 62
               7
100
AcDbVertex
100
AcDb2dVertex
 10
-458.5
 20
71.195387112424669
 30
0.0
  0
VERTEX
  5
6E
100
AcDbEntity
  8
一般
370
               5
  6
Continuous
 62
               7
100
AcDbVertex
100
AcDb2dVertex
 10
-458.5
 20
70.410630967881787
 30
0.0
  0
SEQEND
  5
6F
100
AcDbEntity
  8
一般
370
               5
  6
Continuous
 62
               7
  0
POLYLINE
  5
70
100
AcDbEntity
  8
一般
370
               5
  6
Continuous
 62
               7
100
AcDb2dPolyline
 66
               1
 10
0.0
 20
0.0
 30
0.0
 70
               1
 75
               5
  0
VERTEX
  5
71
100
AcDbEntity
  8
一般
370
               5
  6
Continuous
 62
               7
100
AcDbVertex
100
AcDb2dVertex
 10
-458.5
 20
73.195387112424669
 30
0.0
  0
VERTEX
  5
72
100
AcDbEntity
  8
一般
370
               5
  6
Continuous
 62
               7
100
AcDbVertex
100
AcDb2dVertex
 10
-455.5
 20
73.195387112424669
 30
0.0
  0
VERTEX
  5
73
100
AcDbEntity
  8
一般
370
               5
  6
Continuous
 62
               7
100
AcDbVertex
100
AcDb2dVertex
 10
-455.5
 20
72.195387112424669
 30
0.0
  0
VERTEX
  5
74
100
AcDbEntity
  8
一般
370
               5
  6
Continuous
 62
               7
100
AcDbVertex
100
AcDb2dVertex
 10
-458.5
 20
72.195387112424669
 30
0.0
  0
SEQEND
  5
75
100
AcDbEntity
  8
一般
370
               5
  6
Continuous
 62
               7
  0
POLYLINE
  5
76
100
AcDbEntity
  8
一般
370
               5
  6
Continuous
 62
               7
100
AcDb2dPolyline
 66
               1
 10
0.0
 20
0.0
 30
0.0
 70
               1
 75
               5
  0
VERTEX
  5
77
100
AcDbEntity
  8
一般
370
               5
  6
Continuous
 62
               7
100
AcDbVertex
100
AcDb2dVertex
 10
-458.5
 20
75.195387112424669
 30
0.0
  0
VERTEX
  5
78
100
AcDbEntity
  8
一般
370
               5
  6
Continuous
 62
               7
100
AcDbVertex
100
AcDb2dVertex
 10
-455.5
 20
75.195387112424669
 30
0.0
  0
VERTEX
  5
79
100
AcDbEntity
  8
一般
370
               5
  6
Continuous
 62
               7
100
AcDbVertex
100
AcDb2dVertex
 10
-455.5
 20
74.195387112424669
 30
0.0
  0
VERTEX
  5
7A
100
AcDbEntity
  8
一般
370
               5
  6
Continuous
 62
               7
100
AcDbVertex
100
AcDb2dVertex
 10
-458.5
 20
74.195387112424669
 30
0.0
  0
SEQEND
  5
7B
100
AcDbEntity
  8
一般
370
               5
  6
Continuous
 62
               7
  0
POLYLINE
  5
7C
100
AcDbEntity
  8
一般
370
               5
  6
Continuous
 62
               7
100
AcDb2dPolyline
 66
               1
 10
0.0
 20
0.0
 30
0.0
 70
               1
 75
               5
  0
VERTEX
  5
7D
100
AcDbEntity
  8
一般
370
               5
  6
Continuous
 62
               7
100
AcDbVertex
100
AcDb2dVertex
 10
-458.5
 20
77.195387112424669
 30
0.0
  0
VERTEX
  5
7E
100
AcDbEntity
  8
一般
370
               5
  6
Continuous
 62
               7
100
AcDbVertex
100
AcDb2dVertex
 10
-455.5
 20
77.195387112424669
 30
0.0
  0
VERTEX
  5
7F
100
AcDbEntity
  8
一般
370
               5
  6
Continuous
 62
               7
100
AcDbVertex
100
AcDb2dVertex
 10
-455.5
 20
76.195387112424669
 30
0.0
  0
VERTEX
  5
80
100
AcDbEntity
  8
一般
370
               5
  6
Continuous
 62
               7
100
AcDbVertex
100
AcDb2dVertex
 10
-458.5
 20
76.195387112424669
 30
0.0
  0
SEQEND
  5
81
100
AcDbEntity
  8
一般
370
               5
  6
Continuous
 62
               7
  0
POLYLINE
  5
82
100
AcDbEntity
  8
一般
370
               5
  6
Continuous
 62
               7
100
AcDb2dPolyline
 66
               1
 10
0.0
 20
0.0
 30
0.0
 70
               1
 75
               5
  0
VERTEX
  5
83
100
AcDbEntity
  8
一般
370
               5
  6
Continuous
 62
               7
100
AcDbVertex
100
AcDb2dVertex
 10
-458.5
 20
79.195387112424669
 30
0.0
  0
VERTEX
  5
84
100
AcDbEntity
  8
一般
370
               5
  6
Continuous
 62
               7
100
AcDbVertex
100
AcDb2dVertex
 10
-455.5
 20
79.195387112424669
 30
0.0
  0
VERTEX
  5
85
100
AcDbEntity
  8
一般
370
               5
  6
Continuous
 62
               7
100
AcDbVertex
100
AcDb2dVertex
 10
-455.5
 20
78.195387112424669
 30
0.0
  0
VERTEX
  5
86
100
AcDbEntity
  8
一般
370
               5
  6
Continuous
 62
               7
100
AcDbVertex
100
AcDb2dVertex
 10
-458.5
 20
78.195387112424669
 30
0.0
  0
SEQEND
  5
87
100
AcDbEntity
  8
一般
370
               5
  6
Continuous
 62
               7
  0
POLYLINE
  5
88
100
AcDbEntity
  8
一般
370
               5
  6
Continuous
 62
               7
100
AcDb2dPolyline
 66
               1
 10
0.0
 20
0.0
 30
0.0
 70
               1
 75
               5
  0
VERTEX
  5
89
100
AcDbEntity
  8
一般
370
               5
  6
Continuous
 62
               7
100
AcDbVertex
100
AcDb2dVertex
 10
-458.5
 20
81.195387112424669
 30
0.0
  0
VERTEX
  5
8A
100
AcDbEntity
  8
一般
370
               5
  6
Continuous
 62
               7
100
AcDbVertex
100
AcDb2dVertex
 10
-455.5
 20
81.195387112424669
 30
0.0
  0
VERTEX
  5
8B
100
AcDbEntity
  8
一般
370
               5
  6
Continuous
 62
               7
100
AcDbVertex
100
AcDb2dVertex
 10
-455.5
 20
80.195387112424669
 30
0.0
  0
VERTEX
  5
8C
100
AcDbEntity
  8
一般
370
               5
  6
Continuous
 62
               7
100
AcDbVertex
100
AcDb2dVertex
 10
-458.5
 20
80.195387112424669
 30
0.0
  0
SEQEND
  5
8D
100
AcDbEntity
  8
一般
370
               5
  6
Continuous
 62
               7
  0
POLYLINE
  5
8E
100
AcDbEntity
  8
一般
370
               5
  6
Continuous
 62
               7
100
AcDb2dPolyline
 66
               1
 10
0.0
 20
0.0
 30
0.0
 70
               1
 75
               5
  0
VERTEX
  5
8F
100
AcDbEntity
  8
一般
370
               5
  6
Continuous
 62
               7
100
AcDbVertex
100
AcDb2dVertex
 10
-458.5
 20
83.195387112424669
 30
0.0
  0
VERTEX
  5
90
100
AcDbEntity
  8
一般
370
               5
  6
Continuous
 62
               7
100
AcDbVertex
100
AcDb2dVertex
 10
-455.5
 20
83.195387112424669
 30
0.0
  0
VERTEX
  5
91
100
AcDbEntity
  8
一般
370
               5
  6
Continuous
 62
               7
100
AcDbVertex
100
AcDb2dVertex
 10
-455.5
 20
82.195387112424669
 30
0.0
  0
VERTEX
  5
92
100
AcDbEntity
  8
一般
370
               5
  6
Continuous
 62
               7
100
AcDbVertex
100
AcDb2dVertex
 10
-458.5
 20
82.195387112424669
 30
0.0
  0
SEQEND
  5
93
100
AcDbEntity
  8
一般
370
               5
  6
Continuous
 62
               7
  0
POLYLINE
  5
94
100
AcDbEntity
  8
一般
370
               5
  6
Continuous
 62
               7
100
AcDb2dPolyline
 66
               1
 10
0.0
 20
0.0
 30
0.0
 70
               1
 75
               5
  0
VERTEX
  5
95
100
AcDbEntity
  8
一般
370
               5
  6
Continuous
 62
               7
100
AcDbVertex
100
AcDb2dVertex
 10
-458.5
 20
85.195387112424669
 30
0.0
  0
VERTEX
  5
96
100
AcDbEntity
  8
一般
370
               5
  6
Continuous
 62
               7
100
AcDbVertex
100
AcDb2dVertex
 10
-455.5
 20
85.195387112424669
 30
0.0
  0
VERTEX
  5
97
100
AcDbEntity
  8
一般
370
               5
  6
Continuous
 62
               7
100
AcDbVertex
100
AcDb2dVertex
 10
-455.5
 20
84.195387112424669
 30
0.0
  0
VERTEX
  5
98
100
AcDbEntity
  8
一般
370
               5
  6
Continuous
 62
               7
100
AcDbVertex
100
AcDb2dVertex
 10
-458.5
 20
84.195387112424669
 30
0.0
  0
SEQEND
  5
99
100
AcDbEntity
  8
一般
370
               5
  6
Continuous
 62
               7
  0
POLYLINE
  5
9A
100
AcDbEntity
  8
一般
370
               5
  6
Continuous
 62
               7
100
AcDb2dPolyline
 66
               1
 10
0.0
 20
0.0
 30
0.0
 70
               1
 75
               5
  0
VERTEX
  5
9B
100
AcDbEntity
  8
一般
370
               5
  6
Continuous
 62
               7
100
AcDbVertex
100
AcDb2dVertex
 10
-458.5
 20
87.195387112424669
 30
0.0
  0
VERTEX
  5
9C
100
AcDbEntity
  8
一般
370
               5
  6
Continuous
 62
               7
100
AcDbVertex
100
AcDb2dVertex
 10
-455.5
 20
87.195387112424669
 30
0.0
  0
VERTEX
  5
9D
100
AcDbEntity
  8
一般
370
               5
  6
Continuous
 62
               7
100
AcDbVertex
100
AcDb2dVertex
 10
-455.5
 20
86.195387112424669
 30
0.0
  0
VERTEX
  5
9E
100
AcDbEntity
  8
一般
370
               5
  6
Continuous
 62
               7
100
AcDbVertex
100
AcDb2dVertex
 10
-458.5
 20
86.195387112424669
 30
0.0
  0
SEQEND
  5
9F
100
AcDbEntity
  8
一般
370
               5
  6
Continuous
 62
               7
  0
POLYLINE
  5
A0
100
AcDbEntity
  8
一般
370
               5
  6
Continuous
 62
               7
100
AcDb2dPolyline
 66
               1
 10
0.0
 20
0.0
 30
0.0
 70
               1
 75
               5
  0
VERTEX
  5
A1
100
AcDbEntity
  8
一般
370
               5
  6
Continuous
 62
               7
100
AcDbVertex
100
AcDb2dVertex
 10
-458.5
 20
89.195387112424669
 30
0.0
  0
VERTEX
  5
A2
100
AcDbEntity
  8
一般
370
               5
  6
Continuous
 62
               7
100
AcDbVertex
100
AcDb2dVertex
 10
-455.5
 20
89.195387112424669
 30
0.0
  0
VERTEX
  5
A3
100
AcDbEntity
  8
一般
370
               5
  6
Continuous
 62
               7
100
AcDbVertex
100
AcDb2dVertex
 10
-455.5
 20
88.195387112424669
 30
0.0
  0
VERTEX
  5
A4
100
AcDbEntity
  8
一般
370
               5
  6
Continuous
 62
               7
100
AcDbVertex
100
AcDb2dVertex
 10
-458.5
 20
88.195387112424669
 30
0.0
  0
SEQEND
  5
A5
100
AcDbEntity
  8
一般
370
               5
  6
Continuous
 62
               7
  0
POLYLINE
  5
A6
100
AcDbEntity
  8
一般
370
               5
  6
Continuous
 62
               7
100
AcDb2dPolyline
 66
               1
 10
0.0
 20
0.0
 30
0.0
 70
               1
 75
               5
  0
VERTEX
  5
A7
100
AcDbEntity
  8
一般
370
               5
  6
Continuous
 62
               7
100
AcDbVertex
100
AcDb2dVertex
 10
-458.5
 20
91.195387112424669
 30
0.0
  0
VERTEX
  5
A8
100
AcDbEntity
  8
一般
370
               5
  6
Continuous
 62
               7
100
AcDbVertex
100
AcDb2dVertex
 10
-455.5
 20
91.195387112424669
 30
0.0
  0
VERTEX
  5
A9
100
AcDbEntity
  8
一般
370
               5
  6
Continuous
 62
               7
100
AcDbVertex
100
AcDb2dVertex
 10
-455.5
 20
90.195387112424669
 30
0.0
  0
VERTEX
  5
AA
100
AcDbEntity
  8
一般
370
               5
  6
Continuous
 62
               7
100
AcDbVertex
100
AcDb2dVertex
 10
-458.5
 20
90.195387112424669
 30
0.0
  0
SEQEND
  5
AB
100
AcDbEntity
  8
一般
370
               5
  6
Continuous
 62
               7
  0
LINE
  5
AC
100
AcDbEntity
  8
一般
370
               5
  6
Continuous
 62
               7
100
AcDbLine
 10
-442.75
 20
92.256251988412515
 30
0.0
 11
-442.75
 21
91.195387112424669
 31
0.0
  0
LINE
  5
AD
100
AcDbEntity
  8
一般
370
               5
  6
Continuous
 62
               7
100
AcDbLine
 10
-442.75
 20
90.195387112424669
 30
0.0
 11
-442.75
 21
89.195387112424669
 31
0.0
  0
LINE
  5
AE
100
AcDbEntity
  8
一般
370
               5
  6
Continuous
 62
               7
100
AcDbLine
 10
-442.75
 20
88.195387112424669
 30
0.0
 11
-442.75
 21
87.195387112424669
 31
0.0
  0
LINE
  5
AF
100
AcDbEntity
  8
一般
370
               5
  6
Continuous
 62
               7
100
AcDbLine
 10
-442.75
 20
86.195387112424669
 30
0.0
 11
-442.75
 21
85.195387112424669
 31
0.0
  0
LINE
  5
B0
100
AcDbEntity
  8
一般
370
               5
  6
Continuous
 62
               7
100
AcDbLine
 10
-442.75
 20
84.195387112424669
 30
0.0
 11
-442.75
 21
83.195387112424669
 31
0.0
  0
LINE
  5
B1
100
AcDbEntity
  8
一般
370
               5
  6
Continuous
 62
               7
100
AcDbLine
 10
-442.75
 20
82.195387112424669
 30
0.0
 11
-442.75
 21
81.195387112424669
 31
0.0
  0
LINE
  5
B2
100
AcDbEntity
  8
一般
370
               5
  6
Continuous
 62
               7
100
AcDbLine
 10
-442.75
 20
80.195387112424669
 30
0.0
 11
-442.75
 21
79.195387112424669
 31
0.0
  0
LINE
  5
B3
100
AcDbEntity
  8
一般
370
               5
  6
Continuous
 62
               7
100
AcDbLine
 10
-442.75
 20
78.195387112424669
 30
0.0
 11
-442.75
 21
77.195387112424669
 31
0.0
  0
LINE
  5
B4
100
AcDbEntity
  8
一般
370
               5
  6
Continuous
 62
               7
100
AcDbLine
 10
-442.75
 20
76.195387112424669
 30
0.0
 11
-442.75
 21
75.195387112424669
 31
0.0
  0
LINE
  5
B5
100
AcDbEntity
  8
一般
370
               5
  6
Continuous
 62
               7
100
AcDbLine
 10
-442.75
 20
74.195387112424669
 30
0.0
 11
-442.75
 21
73.195387112424669
 31
0.0
  0
LINE
  5
B6
100
AcDbEntity
  8
一般
370
               5
  6
Continuous
 62
               7
100
AcDbLine
 10
-442.75
 20
72.195387112424669
 30
0.0
 11
-442.75
 21
71.195387112424669
 31
0.0
  0
LINE
  5
B7
100
AcDbEntity
  8
一般
370
               5
  6
Continuous
 62
               7
100
AcDbLine
 10
-445.25
 20
71.195387112424669
 30
0.0
 11
-445.25
 21
72.195387112424669
 31
0.0
  0
LINE
  5
B8
100
AcDbEntity
  8
一般
370
               5
  6
Continuous
 62
               7
100
AcDbLine
 10
-445.25
 20
73.195387112424669
 30
0.0
 11
-445.25
 21
74.195387112424669
 31
0.0
  0
LINE
  5
B9
100
AcDbEntity
  8
一般
370
               5
  6
Continuous
 62
               7
100
AcDbLine
 10
-445.25
 20
75.195387112424669
 30
0.0
 11
-445.25
 21
76.195387112424669
 31
0.0
  0
LINE
  5
BA
100
AcDbEntity
  8
一般
370
               5
  6
Continuous
 62
               7
100
AcDbLine
 10
-445.25
 20
77.195387112424669
 30
0.0
 11
-445.25
 21
78.195387112424669
 31
0.0
  0
LINE
  5
BB
100
AcDbEntity
  8
一般
370
               5
  6
Continuous
 62
               7
100
AcDbLine
 10
-445.25
 20
79.195387112424669
 30
0.0
 11
-445.25
 21
80.195387112424669
 31
0.0
  0
LINE
  5
BC
100
AcDbEntity
  8
一般
370
               5
  6
Continuous
 62
               7
100
AcDbLine
 10
-445.25
 20
81.195387112424669
 30
0.0
 11
-445.25
 21
82.195387112424669
 31
0.0
  0
LINE
  5
BD
100
AcDbEntity
  8
一般
370
               5
  6
Continuous
 62
               7
100
AcDbLine
 10
-445.25
 20
83.195387112424669
 30
0.0
 11
-445.25
 21
84.195387112424669
 31
0.0
  0
LINE
  5
BE
100
AcDbEntity
  8
一般
370
               5
  6
Continuous
 62
               7
100
AcDbLine
 10
-445.25
 20
85.195387112424669
 30
0.0
 11
-445.25
 21
86.195387112424669
 31
0.0
  0
LINE
  5
BF
100
AcDbEntity
  8
一般
370
               5
  6
Continuous
 62
               7
100
AcDbLine
 10
-445.25
 20
87.195387112424669
 30
0.0
 11
-445.25
 21
88.195387112424669
 31
0.0
  0
LINE
  5
C0
100
AcDbEntity
  8
一般
370
               5
  6
Continuous
 62
               7
100
AcDbLine
 10
-445.25
 20
89.195387112424669
 30
0.0
 11
-445.25
 21
90.195387112424669
 31
0.0
  0
LINE
  5
C1
100
AcDbEntity
  8
一般
370
               5
  6
Continuous
 62
               7
100
AcDbLine
 10
-445.25
 20
91.195387112424669
 30
0.0
 11
-445.25
 21
92.256251988412515
 31
0.0
  0
POLYLINE
  5
C2
100
AcDbEntity
  8
一般
370
               5
  6
Continuous
 62
               7
100
AcDb2dPolyline
 66
               1
 10
0.0
 20
0.0
 30
0.0
 75
               5
  0
VERTEX
  5
C3
100
AcDbEntity
  8
一般
370
               5
  6
Continuous
 62
               7
100
AcDbVertex
100
AcDb2dVertex
 10
-440.60792376397791
 20
65.474270344211845
 30
0.0
  0
VERTEX
  5
C4
100
AcDbEntity
  8
一般
370
               5
  6
Continuous
 62
               7
100
AcDbVertex
100
AcDb2dVertex
 10
-440.0
 20
64.421315497873593
 30
0.0
  0
VERTEX
  5
C5
100
AcDbEntity
  8
一般
370
               5
  6
Continuous
 62
               7
100
AcDbVertex
100
AcDb2dVertex
 10
-448.0
 20
64.421315497873593
 30
0.0
  0
VERTEX
  5
C6
100
AcDbEntity
  8
一般
370
               5
  6
Continuous
 62
               7
100
AcDbVertex
100
AcDb2dVertex
 10
-447.42881844707733
 20
65.410630967881772
 30
0.0
  0
SEQEND
  5
C7
100
AcDbEntity
  8
一般
370
               5
  6
Continuous
 62
               7
  0
LINE
  5
C8
100
AcDbEntity
  8
一般
370
               5
  6
Continuous
 62
               7
100
AcDbLine
 10
-444.0
 20
94.421315497873593
 30
0.0
 11
-445.25
 21
92.256251988412515
 31
0.0
  0
LINE
  5
C9
100
AcDbEntity
  8
一般
370
               5
  6
Continuous
 62
               7
100
AcDbLine
 10
-444.0
 20
94.421315497873593
 30
0.0
 11
-442.75
 21
92.256251988412515
 31
0.0
  0
POLYLINE
  5
CA
100
AcDbEntity
  8
一般
370
               5
  6
Continuous
 62
               7
100
AcDb2dPolyline
 66
               1
 10
0.0
 20
0.0
 30
0.0
 75
               5
  0
VERTEX
  5
CB
100
AcDbEntity
  8
一般
370
               5
  6
Continuous
 62
               7
100
AcDbVertex
100
AcDb2dVertex
 10
-442.5
 20
70.410630967881787
 30
0.0
  0
VERTEX
  5
CC
100
AcDbEntity
  8
一般
370
               5
  6
Continuous
 62
               7
100
AcDbVertex
100
AcDb2dVertex
 10
-442.5
 20
71.195387112424669
 30
0.0
  0
VERTEX
  5
CD
100
AcDbEntity
  8
一般
370
               5
  6
Continuous
 62
               7
100
AcDbVertex
100
AcDb2dVertex
 10
-445.5
 20
71.195387112424669
 30
0.0
  0
VERTEX
  5
CE
100
AcDbEntity
  8
一般
370
               5
  6
Continuous
 62
               7
100
AcDbVertex
100
AcDb2dVertex
 10
-445.5
 20
70.410630967881787
 30
0.0
  0
SEQEND
  5
CF
100
AcDbEntity
  8
一般
370
               5
  6
Continuous
 62
               7
  0
POLYLINE
  5
D0
100
AcDbEntity
  8
一般
370
               5
  6
Continuous
 62
               7
100
AcDb2dPolyline
 66
               1
 10
0.0
 20
0.0
 30
0.0
 70
               1
 75
               5
  0
VERTEX
  5
D1
100
AcDbEntity
  8
一般
370
               5
  6
Continuous
 62
               7
100
AcDbVertex
100
AcDb2dVertex
 10
-445.5
 20
73.195387112424669
 30
0.0
  0
VERTEX
  5
D2
100
AcDbEntity
  8
一般
370
               5
  6
Continuous
 62
               7
100
AcDbVertex
100
AcDb2dVertex
 10
-442.5
 20
73.195387112424669
 30
0.0
  0
VERTEX
  5
D3
100
AcDbEntity
  8
一般
370
               5
  6
Continuous
 62
               7
100
AcDbVertex
100
AcDb2dVertex
 10
-442.5
 20
72.195387112424669
 30
0.0
  0
VERTEX
  5
D4
100
AcDbEntity
  8
一般
370
               5
  6
Continuous
 62
               7
100
AcDbVertex
100
AcDb2dVertex
 10
-445.5
 20
72.195387112424669
 30
0.0
  0
SEQEND
  5
D5
100
AcDbEntity
  8
一般
370
               5
  6
Continuous
 62
               7
  0
POLYLINE
  5
D6
100
AcDbEntity
  8
一般
370
               5
  6
Continuous
 62
               7
100
AcDb2dPolyline
 66
               1
 10
0.0
 20
0.0
 30
0.0
 70
               1
 75
               5
  0
VERTEX
  5
D7
100
AcDbEntity
  8
一般
370
               5
  6
Continuous
 62
               7
100
AcDbVertex
100
AcDb2dVertex
 10
-445.5
 20
75.195387112424669
 30
0.0
  0
VERTEX
  5
D8
100
AcDbEntity
  8
一般
370
               5
  6
Continuous
 62
               7
100
AcDbVertex
100
AcDb2dVertex
 10
-442.5
 20
75.195387112424669
 30
0.0
  0
VERTEX
  5
D9
100
AcDbEntity
  8
一般
370
               5
  6
Continuous
 62
               7
100
AcDbVertex
100
AcDb2dVertex
 10
-442.5
 20
74.195387112424669
 30
0.0
  0
VERTEX
  5
DA
100
AcDbEntity
  8
一般
370
               5
  6
Continuous
 62
               7
100
AcDbVertex
100
AcDb2dVertex
 10
-445.5
 20
74.195387112424669
 30
0.0
  0
SEQEND
  5
DB
100
AcDbEntity
  8
一般
370
               5
  6
Continuous
 62
               7
  0
POLYLINE
  5
DC
100
AcDbEntity
  8
一般
370
               5
  6
Continuous
 62
               7
100
AcDb2dPolyline
 66
               1
 10
0.0
 20
0.0
 30
0.0
 70
               1
 75
               5
  0
VERTEX
  5
DD
100
AcDbEntity
  8
一般
370
               5
  6
Continuous
 62
               7
100
AcDbVertex
100
AcDb2dVertex
 10
-445.5
 20
77.195387112424669
 30
0.0
  0
VERTEX
  5
DE
100
AcDbEntity
  8
一般
370
               5
  6
Continuous
 62
               7
100
AcDbVertex
100
AcDb2dVertex
 10
-442.5
 20
77.195387112424669
 30
0.0
  0
VERTEX
  5
DF
100
AcDbEntity
  8
一般
370
               5
  6
Continuous
 62
               7
100
AcDbVertex
100
AcDb2dVertex
 10
-442.5
 20
76.195387112424669
 30
0.0
  0
VERTEX
  5
E0
100
AcDbEntity
  8
一般
370
               5
  6
Continuous
 62
               7
100
AcDbVertex
100
AcDb2dVertex
 10
-445.5
 20
76.195387112424669
 30
0.0
  0
SEQEND
  5
E1
100
AcDbEntity
  8
一般
370
               5
  6
Continuous
 62
               7
  0
POLYLINE
  5
E2
100
AcDbEntity
  8
一般
370
               5
  6
Continuous
 62
               7
100
AcDb2dPolyline
 66
               1
 10
0.0
 20
0.0
 30
0.0
 70
               1
 75
               5
  0
VERTEX
  5
E3
100
AcDbEntity
  8
一般
370
               5
  6
Continuous
 62
               7
100
AcDbVertex
100
AcDb2dVertex
 10
-445.5
 20
79.195387112424669
 30
0.0
  0
VERTEX
  5
E4
100
AcDbEntity
  8
一般
370
               5
  6
Continuous
 62
               7
100
AcDbVertex
100
AcDb2dVertex
 10
-442.5
 20
79.195387112424669
 30
0.0
  0
VERTEX
  5
E5
100
AcDbEntity
  8
一般
370
               5
  6
Continuous
 62
               7
100
AcDbVertex
100
AcDb2dVertex
 10
-442.5
 20
78.195387112424669
 30
0.0
  0
VERTEX
  5
E6
100
AcDbEntity
  8
一般
370
               5
  6
Continuous
 62
               7
100
AcDbVertex
100
AcDb2dVertex
 10
-445.5
 20
78.195387112424669
 30
0.0
  0
SEQEND
  5
E7
100
AcDbEntity
  8
一般
370
               5
  6
Continuous
 62
               7
  0
POLYLINE
  5
E8
100
AcDbEntity
  8
一般
370
               5
  6
Continuous
 62
               7
100
AcDb2dPolyline
 66
               1
 10
0.0
 20
0.0
 30
0.0
 70
               1
 75
               5
  0
VERTEX
  5
E9
100
AcDbEntity
  8
一般
370
               5
  6
Continuous
 62
               7
100
AcDbVertex
100
AcDb2dVertex
 10
-445.5
 20
81.195387112424669
 30
0.0
  0
VERTEX
  5
EA
100
AcDbEntity
  8
一般
370
               5
  6
Continuous
 62
               7
100
AcDbVertex
100
AcDb2dVertex
 10
-442.5
 20
81.195387112424669
 30
0.0
  0
VERTEX
  5
EB
100
AcDbEntity
  8
一般
370
               5
  6
Continuous
 62
               7
100
AcDbVertex
100
AcDb2dVertex
 10
-442.5
 20
80.195387112424669
 30
0.0
  0
VERTEX
  5
EC
100
AcDbEntity
  8
一般
370
               5
  6
Continuous
 62
               7
100
AcDbVertex
100
AcDb2dVertex
 10
-445.5
 20
80.195387112424669
 30
0.0
  0
SEQEND
  5
ED
100
AcDbEntity
  8
一般
370
               5
  6
Continuous
 62
               7
  0
POLYLINE
  5
EE
100
AcDbEntity
  8
一般
370
               5
  6
Continuous
 62
               7
100
AcDb2dPolyline
 66
               1
 10
0.0
 20
0.0
 30
0.0
 70
               1
 75
               5
  0
VERTEX
  5
EF
100
AcDbEntity
  8
一般
370
               5
  6
Continuous
 62
               7
100
AcDbVertex
100
AcDb2dVertex
 10
-445.5
 20
83.195387112424669
 30
0.0
  0
VERTEX
  5
F0
100
AcDbEntity
  8
一般
370
               5
  6
Continuous
 62
               7
100
AcDbVertex
100
AcDb2dVertex
 10
-442.5
 20
83.195387112424669
 30
0.0
  0
VERTEX
  5
F1
100
AcDbEntity
  8
一般
370
               5
  6
Continuous
 62
               7
100
AcDbVertex
100
AcDb2dVertex
 10
-442.5
 20
82.195387112424669
 30
0.0
  0
VERTEX
  5
F2
100
AcDbEntity
  8
一般
370
               5
  6
Continuous
 62
               7
100
AcDbVertex
100
AcDb2dVertex
 10
-445.5
 20
82.195387112424669
 30
0.0
  0
SEQEND
  5
F3
100
AcDbEntity
  8
一般
370
               5
  6
Continuous
 62
               7
  0
POLYLINE
  5
F4
100
AcDbEntity
  8
一般
370
               5
  6
Continuous
 62
               7
100
AcDb2dPolyline
 66
               1
 10
0.0
 20
0.0
 30
0.0
 70
               1
 75
               5
  0
VERTEX
  5
F5
100
AcDbEntity
  8
一般
370
               5
  6
Continuous
 62
               7
100
AcDbVertex
100
AcDb2dVertex
 10
-445.5
 20
85.195387112424669
 30
0.0
  0
VERTEX
  5
F6
100
AcDbEntity
  8
一般
370
               5
  6
Continuous
 62
               7
100
AcDbVertex
100
AcDb2dVertex
 10
-442.5
 20
85.195387112424669
 30
0.0
  0
VERTEX
  5
F7
100
AcDbEntity
  8
一般
370
               5
  6
Continuous
 62
               7
100
AcDbVertex
100
AcDb2dVertex
 10
-442.5
 20
84.195387112424669
 30
0.0
  0
VERTEX
  5
F8
100
AcDbEntity
  8
一般
370
               5
  6
Continuous
 62
               7
100
AcDbVertex
100
AcDb2dVertex
 10
-445.5
 20
84.195387112424669
 30
0.0
  0
SEQEND
  5
F9
100
AcDbEntity
  8
一般
370
               5
  6
Continuous
 62
               7
  0
POLYLINE
  5
FA
100
AcDbEntity
  8
一般
370
               5
  6
Continuous
 62
               7
100
AcDb2dPolyline
 66
               1
 10
0.0
 20
0.0
 30
0.0
 70
               1
 75
               5
  0
VERTEX
  5
FB
100
AcDbEntity
  8
一般
370
               5
  6
Continuous
 62
               7
100
AcDbVertex
100
AcDb2dVertex
 10
-445.5
 20
87.195387112424669
 30
0.0
  0
VERTEX
  5
FC
100
AcDbEntity
  8
一般
370
               5
  6
Continuous
 62
               7
100
AcDbVertex
100
AcDb2dVertex
 10
-442.5
 20
87.195387112424669
 30
0.0
  0
VERTEX
  5
FD
100
AcDbEntity
  8
一般
370
               5
  6
Continuous
 62
               7
100
AcDbVertex
100
AcDb2dVertex
 10
-442.5
 20
86.195387112424669
 30
0.0
  0
VERTEX
  5
FE
100
AcDbEntity
  8
一般
370
               5
  6
Continuous
 62
               7
100
AcDbVertex
100
AcDb2dVertex
 10
-445.5
 20
86.195387112424669
 30
0.0
  0
SEQEND
  5
FF
100
AcDbEntity
  8
一般
370
               5
  6
Continuous
 62
               7
  0
POLYLINE
  5
100
100
AcDbEntity
  8
一般
370
               5
  6
Continuous
 62
               7
100
AcDb2dPolyline
 66
               1
 10
0.0
 20
0.0
 30
0.0
 70
               1
 75
               5
  0
VERTEX
  5
101
100
AcDbEntity
  8
一般
370
               5
  6
Continuous
 62
               7
100
AcDbVertex
100
AcDb2dVertex
 10
-445.5
 20
89.195387112424669
 30
0.0
  0
VERTEX
  5
102
100
AcDbEntity
  8
一般
370
               5
  6
Continuous
 62
               7
100
AcDbVertex
100
AcDb2dVertex
 10
-442.5
 20
89.195387112424669
 30
0.0
  0
VERTEX
  5
103
100
AcDbEntity
  8
一般
370
               5
  6
Continuous
 62
               7
100
AcDbVertex
100
AcDb2dVertex
 10
-442.5
 20
88.195387112424669
 30
0.0
  0
VERTEX
  5
104
100
AcDbEntity
  8
一般
370
               5
  6
Continuous
 62
               7
100
AcDbVertex
100
AcDb2dVertex
 10
-445.5
 20
88.195387112424669
 30
0.0
  0
SEQEND
  5
105
100
AcDbEntity
  8
一般
370
               5
  6
Continuous
 62
               7
  0
POLYLINE
  5
106
100
AcDbEntity
  8
一般
370
               5
  6
Continuous
 62
               7
100
AcDb2dPolyline
 66
               1
 10
0.0
 20
0.0
 30
0.0
 70
               1
 75
               5
  0
VERTEX
  5
107
100
AcDbEntity
  8
一般
370
               5
  6
Continuous
 62
               7
100
AcDbVertex
100
AcDb2dVertex
 10
-445.5
 20
91.195387112424669
 30
0.0
  0
VERTEX
  5
108
100
AcDbEntity
  8
一般
370
               5
  6
Continuous
 62
               7
100
AcDbVertex
100
AcDb2dVertex
 10
-442.5
 20
91.195387112424669
 30
0.0
  0
VERTEX
  5
109
100
AcDbEntity
  8
一般
370
               5
  6
Continuous
 62
               7
100
AcDbVertex
100
AcDb2dVertex
 10
-442.5
 20
90.195387112424669
 30
0.0
  0
VERTEX
  5
10A
100
AcDbEntity
  8
一般
370
               5
  6
Continuous
 62
               7
100
AcDbVertex
100
AcDb2dVertex
 10
-445.5
 20
90.195387112424669
 30
0.0
  0
SEQEND
  5
10B
100
AcDbEntity
  8
一般
370
               5
  6
Continuous
 62
               7
  0
LWPOLYLINE
  5
10C
100
AcDbEntity
  8
一般
370
               5
  6
Continuous
 62
               7
100
AcDbPolyline
 90
        6
 70
             129
 10
-466.0
 20
70.410630967881787
 10
-435.0
 20
70.410630967881787
 10
-437.49878019021776
 20
67.287155730109532
 42
-0.2278377915826614
 10
-441.40312423743285
 20
65.410630967881787
 10
-459.59687576256727
 20
65.410630967881787
 42
-0.2278377915826557
 10
-463.50121980978236
 20
67.287155730109674
  0
ENDBLK
  5
10D
100
AcDbEntity
  8
一般
100
AcDbBlockEnd
  0
BLOCK
  5
10E
100
AcDbEntity
  8
一般
100
AcDbBlockBegin
  2
グループ-2
 70
               0
 10
0.0
 20
0.0
 30
0.0
  3
グループ-2
  1

  0
POLYLINE
  5
10F
100
AcDbEntity
  8
一般
370
              15
  6
Continuous
 62
               7
100
AcDb2dPolyline
 66
               1
 10
0.0
 20
0.0
 30
0.0
 70
               1
 75
               5
  0
VERTEX
  5
110
100
AcDbEntity
  8
一般
370
              15
  6
Continuous
 62
               7
100
AcDbVertex
100
AcDb2dVertex
 10
-475.0
 20
30.291666666666668
 30
0.0
  0
VERTEX
  5
111
100
AcDbEntity
  8
一般
370
              15
  6
Continuous
 62
               7
100
AcDbVertex
100
AcDb2dVertex
 10
-425.0
 20
30.291666666666668
 30
0.0
  0
VERTEX
  5
112
100
AcDbEntity
  8
一般
370
              15
  6
Continuous
 62
               7
100
AcDbVertex
100
AcDb2dVertex
 10
-425.0
 20
20.291666666666668
 30
0.0
  0
VERTEX
  5
113
100
AcDbEntity
  8
一般
370
              15
  6
Continuous
 62
               7
100
AcDbVertex
100
AcDb2dVertex
 10
-475.0
 20
20.291666666666668
 30
0.0
  0
SEQEND
  5
114
100
AcDbEntity
  8
一般
370
              15
  6
Continuous
 62
               7
  0
POLYLINE
  5
115
100
AcDbEntity
  8
一般
370
              15
  6
Continuous
 62
               7
100
AcDb2dPolyline
 66
               1
 10
0.0
 20
0.0
 30
0.0
 75
               5
  0
VERTEX
  5
116
100
AcDbEntity
  8
一般
370
              15
  6
Continuous
 62
               7
100
AcDbVertex
100
AcDb2dVertex
 10
-458.0
 20
-20.764061423334191
 30
0.0
  0
VERTEX
  5
117
100
AcDbEntity
  8
一般
370
              15
  6
Continuous
 62
               7
100
AcDbVertex
100
AcDb2dVertex
 10
-458.0
 20
20.291666666666671
 30
0.0
  0
VERTEX
  5
118
100
AcDbEntity
  8
一般
370
              15
  6
Continuous
 62
               7
100
AcDbVertex
100
AcDb2dVertex
 10
-442.0
 20
20.291666666666668
 30
0.0
  0
VERTEX
  5
119
100
AcDbEntity
  8
一般
370
              15
  6
Continuous
 62
               7
100
AcDbVertex
100
AcDb2dVertex
 10
-442.0
 20
-20.764061423334187
 30
0.0
  0
SEQEND
  5
11A
100
AcDbEntity
  8
一般
370
              15
  6
Continuous
 62
               7
  0
CIRCLE
  5
11B
100
AcDbEntity
  8
一般
370
              15
  6
Continuous
 62
               7
100
AcDbCircle
 10
-450.0
 20
-29.708333333333329
 30
0.0
 40
11.999999999999972
  0
ENDBLK
  5
11C
100
AcDbEntity
  8
一般
100
AcDbBlockEnd
  0
BLOCK
  5
11D
100
AcDbEntity
  8
一般
100
AcDbBlockBegin
  2
グループ-3
 70
               0
 10
0.0
 20
0.0
 30
0.0
  3
グループ-3
  1

  0
LINE
  5
11E
100
AcDbEntity
  8
排水
 62
             250
100
AcDbLine
 10
-450.0
 20
35.779229058159643
 30
0.0
 11
-450.0
 21
60.779229058159615
 31
0.0
  0
SOLID
  5
11F
100
AcDbEntity
  8
排水
 62
             250
100
AcDbTrace
 10
-450.0
 20
60.779229058159615
 30
0.0
 11
-441.49261314031185
 21
29.029229058159611
 31
0.0
 12
-458.50738685968815
 22
29.029229058159615
 32
0.0
 13
-458.50738685968815
 23
29.029229058159615
 33
0.0
  0
INSERT
  5
120
100
AcDbEntity
  8
一般
 62
               7
100
AcDbBlockReference
  2
グループ-1
 10
0.0
 20
0.0
 30
0.0
  0
INSERT
  5
121
100
AcDbEntity
  8
一般
 62
               7
100
AcDbBlockReference
  2
グループ-2
 10
0.0
 20
0.0
 30
0.0
  0
ENDBLK
  5
122
100
AcDbEntity
  8
一般
100
AcDbBlockEnd
  0
BLOCK
  5
123
100
AcDbEntity
  8
一般
100
AcDbBlockBegin
  2
グループ-4
 70
               0
 10
0.0
 20
0.0
 30
0.0
  3
グループ-4
  1

  0
ARC
  5
124
100
AcDbEntity
  8
一般
370
              15
  6
Continuous
 62
               7
100
AcDbCircle
 10
-450.0
 20
-264.09262945923172
 30
0.0
 40
24.999999999999996
100
AcDbArc
 50
108.66292488494248
 51
71.337075115057544
  0
LWPOLYLINE
  5
125
100
AcDbEntity
  8
一般
370
              15
  6
Continuous
 62
               7
100
AcDbPolyline
 90
        5
 70
             129
 10
-458.0
 20
-119.09262945923172
 10
-442.0
 20
-119.09262945923172
 10
-442.0
 20
-264.09262945923172
 42
-0.414213562373095
 10
-450.0
 20
-272.09262945923172
 42
-0.414213562373095
 10
-458.0
 20
-264.09262945923172
  0
POLYLINE
  5
126
100
AcDbEntity
  8
一般
370
              15
  6
Continuous
 62
               7
100
AcDb2dPolyline
 66
               1
 10
0.0
 20
0.0
 30
0.0
 70
               1
 75
               5
  0
VERTEX
  5
127
100
AcDbEntity
  8
一般
370
              15
  6
Continuous
 62
               7
100
AcDbVertex
100
AcDb2dVertex
 10
-462.0
 20
-116.09262945923172
 30
0.0
  0
VERTEX
  5
128
100
AcDbEntity
  8
一般
370
              15
  6
Continuous
 62
               7
100
AcDbVertex
100
AcDb2dVertex
 10
-438.0
 20
-116.09262945923172
 30
0.0
  0
VERTEX
  5
129
100
AcDbEntity
  8
一般
370
              15
  6
Continuous
 62
               7
100
AcDbVertex
100
AcDb2dVertex
 10
-438.0
 20
-119.09262945923172
 30
0.0
  0
VERTEX
  5
12A
100
AcDbEntity
  8
一般
370
              15
  6
Continuous
 62
               7
100
AcDbVertex
100
AcDb2dVertex
 10
-462.0
 20
-119.09262945923172
 30
0.0
  0
SEQEND
  5
12B
100
AcDbEntity
  8
一般
370
              15
  6
Continuous
 62
               7
  0
ENDBLK
  5
12C
100
AcDbEntity
  8
一般
100
AcDbBlockEnd
  0
BLOCK
  5
12D
100
AcDbEntity
  8
一般
100
AcDbBlockBegin
  2
グループ-5
 70
               0
 10
0.0
 20
0.0
 30
0.0
  3
グループ-5
  1

  0
LINE
  5
12E
100
AcDbEntity
  8
一般
370
               5
  6
Continuous
 62
               7
100
AcDbLine
 10
-25.303066969229235
 20
-265.34262945923172
 30
0.0
 11
-24.303066969229235
 21
-265.34262945923172
 31
0.0
  0
LINE
  5
12F
100
AcDbEntity
  8
一般
370
               5
  6
Continuous
 62
               7
100
AcDbLine
 10
-23.303066969229235
 20
-265.34262945923172
 30
0.0
 11
-22.303066969229235
 21
-265.34262945923172
 31
0.0
  0
LINE
  5
130
100
AcDbEntity
  8
一般
370
               5
  6
Continuous
 62
               7
100
AcDbLine
 10
-21.303066969229235
 20
-265.34262945923172
 30
0.0
 11
-20.303066969229235
 21
-265.34262945923172
 31
0.0
  0
LINE
  5
131
100
AcDbEntity
  8
一般
370
               5
  6
Continuous
 62
               7
100
AcDbLine
 10
-19.303066969229235
 20
-265.34262945923172
 30
0.0
 11
-18.303066969229235
 21
-265.34262945923172
 31
0.0
  0
LINE
  5
132
100
AcDbEntity
  8
一般
370
               5
  6
Continuous
 62
               7
100
AcDbLine
 10
-17.303066969229235
 20
-265.34262945923172
 30
0.0
 11
-16.303066969229235
 21
-265.34262945923172
 31
0.0
  0
LINE
  5
133
100
AcDbEntity
  8
一般
370
               5
  6
Continuous
 62
               7
100
AcDbLine
 10
-15.303066969229235
 20
-265.34262945923172
 30
0.0
 11
-14.303066969229235
 21
-265.34262945923172
 31
0.0
  0
LINE
  5
134
100
AcDbEntity
  8
一般
370
               5
  6
Continuous
 62
               7
100
AcDbLine
 10
-13.303066969229235
 20
-265.34262945923172
 30
0.0
 11
-12.303066969229235
 21
-265.34262945923172
 31
0.0
  0
LINE
  5
135
100
AcDbEntity
  8
一般
370
               5
  6
Continuous
 62
               7
100
AcDbLine
 10
-11.303066969229235
 20
-265.34262945923172
 30
0.0
 11
-10.303066969229235
 21
-265.34262945923172
 31
0.0
  0
LINE
  5
136
100
AcDbEntity
  8
一般
370
               5
  6
Continuous
 62
               7
100
AcDbLine
 10
-9.3030669692292349
 20
-265.34262945923172
 30
0.0
 11
-8.3030669692292349
 21
-265.34262945923172
 31
0.0
  0
LINE
  5
137
100
AcDbEntity
  8
一般
370
               5
  6
Continuous
 62
               7
100
AcDbLine
 10
-7.3030669692292349
 20
-265.34262945923172
 30
0.0
 11
-6.3030669692292349
 21
-265.34262945923172
 31
0.0
  0
LINE
  5
138
100
AcDbEntity
  8
一般
370
               5
  6
Continuous
 62
               7
100
AcDbLine
 10
-5.3030669692292349
 20
-265.34262945923172
 30
0.0
 11
-4.2422020932414171
 21
-265.34262945923172
 31
0.0
  0
LINE
  5
139
100
AcDbEntity
  8
一般
370
               5
  6
Continuous
 62
               7
100
AcDbLine
 10
-25.303066969229235
 20
-262.84262945923172
 30
0.0
 11
-24.303066969229235
 21
-262.84262945923172
 31
0.0
  0
LINE
  5
13A
100
AcDbEntity
  8
一般
370
               5
  6
Continuous
 62
               7
100
AcDbLine
 10
-23.303066969229235
 20
-262.84262945923172
 30
0.0
 11
-22.303066969229235
 21
-262.84262945923172
 31
0.0
  0
LINE
  5
13B
100
AcDbEntity
  8
一般
370
               5
  6
Continuous
 62
               7
100
AcDbLine
 10
-21.303066969229235
 20
-262.84262945923172
 30
0.0
 11
-20.303066969229235
 21
-262.84262945923172
 31
0.0
  0
LINE
  5
13C
100
AcDbEntity
  8
一般
370
               5
  6
Continuous
 62
               7
100
AcDbLine
 10
-19.303066969229235
 20
-262.84262945923172
 30
0.0
 11
-18.303066969229235
 21
-262.84262945923172
 31
0.0
  0
LINE
  5
13D
100
AcDbEntity
  8
一般
370
               5
  6
Continuous
 62
               7
100
AcDbLine
 10
-17.303066969229235
 20
-262.84262945923172
 30
0.0
 11
-16.303066969229235
 21
-262.84262945923172
 31
0.0
  0
LINE
  5
13E
100
AcDbEntity
  8
一般
370
               5
  6
Continuous
 62
               7
100
AcDbLine
 10
-15.303066969229235
 20
-262.84262945923172
 30
0.0
 11
-14.303066969229235
 21
-262.84262945923172
 31
0.0
  0
LINE
  5
13F
100
AcDbEntity
  8
一般
370
               5
  6
Continuous
 62
               7
100
AcDbLine
 10
-13.303066969229235
 20
-262.84262945923172
 30
0.0
 11
-12.303066969229235
 21
-262.84262945923172
 31
0.0
  0
LINE
  5
140
100
AcDbEntity
  8
一般
370
               5
  6
Continuous
 62
               7
100
AcDbLine
 10
-11.303066969229235
 20
-262.84262945923172
 30
0.0
 11
-10.303066969229235
 21
-262.84262945923172
 31
0.0
  0
LINE
  5
141
100
AcDbEntity
  8
一般
370
               5
  6
Continuous
 62
               7
100
AcDbLine
 10
-9.3030669692292349
 20
-262.84262945923172
 30
0.0
 11
-8.3030669692292349
 21
-262.84262945923172
 31
0.0
  0
LINE
  5
142
100
AcDbEntity
  8
一般
370
               5
  6
Continuous
 62
               7
100
AcDbLine
 10
-7.3030669692292349
 20
-262.84262945923172
 30
0.0
 11
-6.3030669692292349
 21
-262.84262945923172
 31
0.0
  0
LINE
  5
143
100
AcDbEntity
  8
一般
370
               5
  6
Continuous
 62
               7
100
AcDbLine
 10
-5.3030669692292349
 20
-262.84262945923172
 30
0.0
 11
-4.2422020932414171
 21
-262.84262945923172
 31
0.0
  0
POLYLINE
  5
144
100
AcDbEntity
  8
一般
370
               5
  6
Continuous
 62
               7
100
AcDb2dPolyline
 66
               1
 10
0.0
 20
0.0
 30
0.0
 75
               5
  0
VERTEX
  5
145
100
AcDbEntity
  8
一般
370
               5
  6
Continuous
 62
               7
100
AcDbVertex
100
AcDb2dVertex
 10
-31.087823113772128
 20
-267.52144790630905
 30
0.0
  0
VERTEX
  5
146
100
AcDbEntity
  8
一般
370
               5
  6
Continuous
 62
               7
100
AcDbVertex
100
AcDb2dVertex
 10
-32.077138583780311
 20
-268.09262945923172
 30
0.0
  0
VERTEX
  5
147
100
AcDbEntity
  8
一般
370
               5
  6
Continuous
 62
               7
100
AcDbVertex
100
AcDb2dVertex
 10
-32.077138583780311
 20
-260.09262945923172
 30
0.0
  0
VERTEX
  5
148
100
AcDbEntity
  8
一般
370
               5
  6
Continuous
 62
               7
100
AcDbVertex
100
AcDb2dVertex
 10
-31.087823113772128
 20
-260.66381101215438
 30
0.0
  0
SEQEND
  5
149
100
AcDbEntity
  8
一般
370
               5
  6
Continuous
 62
               7
  0
LINE
  5
14A
100
AcDbEntity
  8
一般
370
               5
  6
Continuous
 62
               7
100
AcDbLine
 10
-2.0771385837803109
 20
-264.09262945923172
 30
0.0
 11
-4.2422020932414171
 21
-262.84262945923172
 31
0.0
  0
LINE
  5
14B
100
AcDbEntity
  8
一般
370
               5
  6
Continuous
 62
               7
100
AcDbLine
 10
-2.0771385837803109
 20
-264.09262945923172
 30
0.0
 11
-4.2422020932414171
 21
-265.34262945923172
 31
0.0
  0
POLYLINE
  5
14C
100
AcDbEntity
  8
一般
370
               5
  6
Continuous
 62
               7
100
AcDb2dPolyline
 66
               1
 10
0.0
 20
0.0
 30
0.0
 75
               5
  0
VERTEX
  5
14D
100
AcDbEntity
  8
一般
370
               5
  6
Continuous
 62
               7
100
AcDbVertex
100
AcDb2dVertex
 10
-26.087823113772117
 20
-265.59262945923172
 30
0.0
  0
VERTEX
  5
14E
100
AcDbEntity
  8
一般
370
               5
  6
Continuous
 62
               7
100
AcDbVertex
100
AcDb2dVertex
 10
-25.303066969229235
 20
-265.59262945923172
 30
0.0
  0
VERTEX
  5
14F
100
AcDbEntity
  8
一般
370
               5
  6
Continuous
 62
               7
100
AcDbVertex
100
AcDb2dVertex
 10
-25.303066969229235
 20
-262.59262945923172
 30
0.0
  0
VERTEX
  5
150
100
AcDbEntity
  8
一般
370
               5
  6
Continuous
 62
               7
100
AcDbVertex
100
AcDb2dVertex
 10
-26.087823113772117
 20
-262.59262945923172
 30
0.0
  0
SEQEND
  5
151
100
AcDbEntity
  8
一般
370
               5
  6
Continuous
 62
               7
  0
POLYLINE
  5
152
100
AcDbEntity
  8
一般
370
               5
  6
Continuous
 62
               7
100
AcDb2dPolyline
 66
               1
 10
0.0
 20
0.0
 30
0.0
 70
               1
 75
               5
  0
VERTEX
  5
153
100
AcDbEntity
  8
一般
370
               5
  6
Continuous
 62
               7
100
AcDbVertex
100
AcDb2dVertex
 10
-24.303066969229235
 20
-262.59262945923172
 30
0.0
  0
VERTEX
  5
154
100
AcDbEntity
  8
一般
370
               5
  6
Continuous
 62
               7
100
AcDbVertex
100
AcDb2dVertex
 10
-23.303066969229235
 20
-262.59262945923172
 30
0.0
  0
VERTEX
  5
155
100
AcDbEntity
  8
一般
370
               5
  6
Continuous
 62
               7
100
AcDbVertex
100
AcDb2dVertex
 10
-23.303066969229235
 20
-265.59262945923172
 30
0.0
  0
VERTEX
  5
156
100
AcDbEntity
  8
一般
370
               5
  6
Continuous
 62
               7
100
AcDbVertex
100
AcDb2dVertex
 10
-24.303066969229235
 20
-265.59262945923172
 30
0.0
  0
SEQEND
  5
157
100
AcDbEntity
  8
一般
370
               5
  6
Continuous
 62
               7
  0
POLYLINE
  5
158
100
AcDbEntity
  8
一般
370
               5
  6
Continuous
 62
               7
100
AcDb2dPolyline
 66
               1
 10
0.0
 20
0.0
 30
0.0
 70
               1
 75
               5
  0
VERTEX
  5
159
100
AcDbEntity
  8
一般
370
               5
  6
Continuous
 62
               7
100
AcDbVertex
100
AcDb2dVertex
 10
-22.303066969229235
 20
-262.59262945923172
 30
0.0
  0
VERTEX
  5
15A
100
AcDbEntity
  8
一般
370
               5
  6
Continuous
 62
               7
100
AcDbVertex
100
AcDb2dVertex
 10
-21.303066969229235
 20
-262.59262945923172
 30
0.0
  0
VERTEX
  5
15B
100
AcDbEntity
  8
一般
370
               5
  6
Continuous
 62
               7
100
AcDbVertex
100
AcDb2dVertex
 10
-21.303066969229235
 20
-265.59262945923172
 30
0.0
  0
VERTEX
  5
15C
100
AcDbEntity
  8
一般
370
               5
  6
Continuous
 62
               7
100
AcDbVertex
100
AcDb2dVertex
 10
-22.303066969229235
 20
-265.59262945923172
 30
0.0
  0
SEQEND
  5
15D
100
AcDbEntity
  8
一般
370
               5
  6
Continuous
 62
               7
  0
POLYLINE
  5
15E
100
AcDbEntity
  8
一般
370
               5
  6
Continuous
 62
               7
100
AcDb2dPolyline
 66
               1
 10
0.0
 20
0.0
 30
0.0
 70
               1
 75
               5
  0
VERTEX
  5
15F
100
AcDbEntity
  8
一般
370
               5
  6
Continuous
 62
               7
100
AcDbVertex
100
AcDb2dVertex
 10
-20.303066969229235
 20
-262.59262945923172
 30
0.0
  0
VERTEX
  5
160
100
AcDbEntity
  8
一般
370
               5
  6
Continuous
 62
               7
100
AcDbVertex
100
AcDb2dVertex
 10
-19.303066969229235
 20
-262.59262945923172
 30
0.0
  0
VERTEX
  5
161
100
AcDbEntity
  8
一般
370
               5
  6
Continuous
 62
               7
100
AcDbVertex
100
AcDb2dVertex
 10
-19.303066969229235
 20
-265.59262945923172
 30
0.0
  0
VERTEX
  5
162
100
AcDbEntity
  8
一般
370
               5
  6
Continuous
 62
               7
100
AcDbVertex
100
AcDb2dVertex
 10
-20.303066969229235
 20
-265.59262945923172
 30
0.0
  0
SEQEND
  5
163
100
AcDbEntity
  8
一般
370
               5
  6
Continuous
 62
               7
  0
POLYLINE
  5
164
100
AcDbEntity
  8
一般
370
               5
  6
Continuous
 62
               7
100
AcDb2dPolyline
 66
               1
 10
0.0
 20
0.0
 30
0.0
 70
               1
 75
               5
  0
VERTEX
  5
165
100
AcDbEntity
  8
一般
370
               5
  6
Continuous
 62
               7
100
AcDbVertex
100
AcDb2dVertex
 10
-18.303066969229235
 20
-262.59262945923172
 30
0.0
  0
VERTEX
  5
166
100
AcDbEntity
  8
一般
370
               5
  6
Continuous
 62
               7
100
AcDbVertex
100
AcDb2dVertex
 10
-17.303066969229235
 20
-262.59262945923172
 30
0.0
  0
VERTEX
  5
167
100
AcDbEntity
  8
一般
370
               5
  6
Continuous
 62
               7
100
AcDbVertex
100
AcDb2dVertex
 10
-17.303066969229235
 20
-265.59262945923172
 30
0.0
  0
VERTEX
  5
168
100
AcDbEntity
  8
一般
370
               5
  6
Continuous
 62
               7
100
AcDbVertex
100
AcDb2dVertex
 10
-18.303066969229235
 20
-265.59262945923172
 30
0.0
  0
SEQEND
  5
169
100
AcDbEntity
  8
一般
370
               5
  6
Continuous
 62
               7
  0
POLYLINE
  5
16A
100
AcDbEntity
  8
一般
370
               5
  6
Continuous
 62
               7
100
AcDb2dPolyline
 66
               1
 10
0.0
 20
0.0
 30
0.0
 70
               1
 75
               5
  0
VERTEX
  5
16B
100
AcDbEntity
  8
一般
370
               5
  6
Continuous
 62
               7
100
AcDbVertex
100
AcDb2dVertex
 10
-16.303066969229235
 20
-262.59262945923172
 30
0.0
  0
VERTEX
  5
16C
100
AcDbEntity
  8
一般
370
               5
  6
Continuous
 62
               7
100
AcDbVertex
100
AcDb2dVertex
 10
-15.303066969229235
 20
-262.59262945923172
 30
0.0
  0
VERTEX
  5
16D
100
AcDbEntity
  8
一般
370
               5
  6
Continuous
 62
               7
100
AcDbVertex
100
AcDb2dVertex
 10
-15.303066969229235
 20
-265.59262945923172
 30
0.0
  0
VERTEX
  5
16E
100
AcDbEntity
  8
一般
370
               5
  6
Continuous
 62
               7
100
AcDbVertex
100
AcDb2dVertex
 10
-16.303066969229235
 20
-265.59262945923172
 30
0.0
  0
SEQEND
  5
16F
100
AcDbEntity
  8
一般
370
               5
  6
Continuous
 62
               7
  0
POLYLINE
  5
170
100
AcDbEntity
  8
一般
370
               5
  6
Continuous
 62
               7
100
AcDb2dPolyline
 66
               1
 10
0.0
 20
0.0
 30
0.0
 70
               1
 75
               5
  0
VERTEX
  5
171
100
AcDbEntity
  8
一般
370
               5
  6
Continuous
 62
               7
100
AcDbVertex
100
AcDb2dVertex
 10
-14.303066969229235
 20
-262.59262945923172
 30
0.0
  0
VERTEX
  5
172
100
AcDbEntity
  8
一般
370
               5
  6
Continuous
 62
               7
100
AcDbVertex
100
AcDb2dVertex
 10
-13.303066969229235
 20
-262.59262945923172
 30
0.0
  0
VERTEX
  5
173
100
AcDbEntity
  8
一般
370
               5
  6
Continuous
 62
               7
100
AcDbVertex
100
AcDb2dVertex
 10
-13.303066969229235
 20
-265.59262945923172
 30
0.0
  0
VERTEX
  5
174
100
AcDbEntity
  8
一般
370
               5
  6
Continuous
 62
               7
100
AcDbVertex
100
AcDb2dVertex
 10
-14.303066969229235
 20
-265.59262945923172
 30
0.0
  0
SEQEND
  5
175
100
AcDbEntity
  8
一般
370
               5
  6
Continuous
 62
               7
  0
POLYLINE
  5
176
100
AcDbEntity
  8
一般
370
               5
  6
Continuous
 62
               7
100
AcDb2dPolyline
 66
               1
 10
0.0
 20
0.0
 30
0.0
 70
               1
 75
               5
  0
VERTEX
  5
177
100
AcDbEntity
  8
一般
370
               5
  6
Continuous
 62
               7
100
AcDbVertex
100
AcDb2dVertex
 10
-12.303066969229235
 20
-262.59262945923172
 30
0.0
  0
VERTEX
  5
178
100
AcDbEntity
  8
一般
370
               5
  6
Continuous
 62
               7
100
AcDbVertex
100
AcDb2dVertex
 10
-11.303066969229235
 20
-262.59262945923172
 30
0.0
  0
VERTEX
  5
179
100
AcDbEntity
  8
一般
370
               5
  6
Continuous
 62
               7
100
AcDbVertex
100
AcDb2dVertex
 10
-11.303066969229235
 20
-265.59262945923172
 30
0.0
  0
VERTEX
  5
17A
100
AcDbEntity
  8
一般
370
               5
  6
Continuous
 62
               7
100
AcDbVertex
100
AcDb2dVertex
 10
-12.303066969229235
 20
-265.59262945923172
 30
0.0
  0
SEQEND
  5
17B
100
AcDbEntity
  8
一般
370
               5
  6
Continuous
 62
               7
  0
POLYLINE
  5
17C
100
AcDbEntity
  8
一般
370
               5
  6
Continuous
 62
               7
100
AcDb2dPolyline
 66
               1
 10
0.0
 20
0.0
 30
0.0
 70
               1
 75
               5
  0
VERTEX
  5
17D
100
AcDbEntity
  8
一般
370
               5
  6
Continuous
 62
               7
100
AcDbVertex
100
AcDb2dVertex
 10
-10.303066969229235
 20
-262.59262945923172
 30
0.0
  0
VERTEX
  5
17E
100
AcDbEntity
  8
一般
370
               5
  6
Continuous
 62
               7
100
AcDbVertex
100
AcDb2dVertex
 10
-9.3030669692292349
 20
-262.59262945923172
 30
0.0
  0
VERTEX
  5
17F
100
AcDbEntity
  8
一般
370
               5
  6
Continuous
 62
               7
100
AcDbVertex
100
AcDb2dVertex
 10
-9.3030669692292349
 20
-265.59262945923172
 30
0.0
  0
VERTEX
  5
180
100
AcDbEntity
  8
一般
370
               5
  6
Continuous
 62
               7
100
AcDbVertex
100
AcDb2dVertex
 10
-10.303066969229235
 20
-265.59262945923172
 30
0.0
  0
SEQEND
  5
181
100
AcDbEntity
  8
一般
370
               5
  6
Continuous
 62
               7
  0
POLYLINE
  5
182
100
AcDbEntity
  8
一般
370
               5
  6
Continuous
 62
               7
100
AcDb2dPolyline
 66
               1
 10
0.0
 20
0.0
 30
0.0
 70
               1
 75
               5
  0
VERTEX
  5
183
100
AcDbEntity
  8
一般
370
               5
  6
Continuous
 62
               7
100
AcDbVertex
100
AcDb2dVertex
 10
-8.3030669692292349
 20
-262.59262945923172
 30
0.0
  0
VERTEX
  5
184
100
AcDbEntity
  8
一般
370
               5
  6
Continuous
 62
               7
100
AcDbVertex
100
AcDb2dVertex
 10
-7.3030669692292349
 20
-262.59262945923172
 30
0.0
  0
VERTEX
  5
185
100
AcDbEntity
  8
一般
370
               5
  6
Continuous
 62
               7
100
AcDbVertex
100
AcDb2dVertex
 10
-7.3030669692292349
 20
-265.59262945923172
 30
0.0
  0
VERTEX
  5
186
100
AcDbEntity
  8
一般
370
               5
  6
Continuous
 62
               7
100
AcDbVertex
100
AcDb2dVertex
 10
-8.3030669692292349
 20
-265.59262945923172
 30
0.0
  0
SEQEND
  5
187
100
AcDbEntity
  8
一般
370
               5
  6
Continuous
 62
               7
  0
POLYLINE
  5
188
100
AcDbEntity
  8
一般
370
               5
  6
Continuous
 62
               7
100
AcDb2dPolyline
 66
               1
 10
0.0
 20
0.0
 30
0.0
 70
               1
 75
               5
  0
VERTEX
  5
189
100
AcDbEntity
  8
一般
370
               5
  6
Continuous
 62
               7
100
AcDbVertex
100
AcDb2dVertex
 10
-6.3030669692292349
 20
-262.59262945923172
 30
0.0
  0
VERTEX
  5
18A
100
AcDbEntity
  8
一般
370
               5
  6
Continuous
 62
               7
100
AcDbVertex
100
AcDb2dVertex
 10
-5.3030669692292349
 20
-262.59262945923172
 30
0.0
  0
VERTEX
  5
18B
100
AcDbEntity
  8
一般
370
               5
  6
Continuous
 62
               7
100
AcDbVertex
100
AcDb2dVertex
 10
-5.3030669692292349
 20
-265.59262945923172
 30
0.0
  0
VERTEX
  5
18C
100
AcDbEntity
  8
一般
370
               5
  6
Continuous
 62
               7
100
AcDbVertex
100
AcDb2dVertex
 10
-6.3030669692292349
 20
-265.59262945923172
 30
0.0
  0
SEQEND
  5
18D
100
AcDbEntity
  8
一般
370
               5
  6
Continuous
 62
               7
  0
LWPOLYLINE
  5
18E
100
AcDbEntity
  8
一般
370
               5
  6
Continuous
 62
               7
100
AcDbPolyline
 90
        6
 70
             129
 10
-26.087823113772117
 20
-248.59262945923172
 10
-26.087823113772117
 20
-279.59262945923172
 10
-29.211298351544265
 20
-277.09384926901402
 42
-0.2278377915826713
 10
-31.087823113772117
 20
-273.18950522179892
 10
-31.087823113772117
 20
-254.99575369666454
 42
-0.2278377915826681
 10
-29.211298351544201
 20
-251.09140964944936
  0
ENDBLK
  5
18F
100
AcDbEntity
  8
一般
100
AcDbBlockEnd
  0
BLOCK
  5
190
100
AcDbEntity
  8
一般
100
AcDbBlockBegin
  2
グループ-6
 70
               0
 10
0.0
 20
0.0
 30
0.0
  3
グループ-6
  1

  0
POLYLINE
  5
191
100
AcDbEntity
  8
一般
370
              15
  6
Continuous
 62
               7
100
AcDb2dPolyline
 66
               1
 10
0.0
 20
0.0
 30
0.0
 70
               1
 75
               5
  0
VERTEX
  5
192
100
AcDbEntity
  8
一般
370
              15
  6
Continuous
 62
               7
100
AcDbVertex
100
AcDb2dVertex
 10
-72.5
 20
-239.09262945923172
 30
0.0
  0
VERTEX
  5
193
100
AcDbEntity
  8
一般
370
              15
  6
Continuous
 62
               7
100
AcDbVertex
100
AcDb2dVertex
 10
-62.5
 20
-239.09262945923172
 30
0.0
  0
VERTEX
  5
194
100
AcDbEntity
  8
一般
370
              15
  6
Continuous
 62
               7
100
AcDbVertex
100
AcDb2dVertex
 10
-62.5
 20
-289.09262945923172
 30
0.0
  0
VERTEX
  5
195
100
AcDbEntity
  8
一般
370
              15
  6
Continuous
 62
               7
100
AcDbVertex
100
AcDb2dVertex
 10
-72.5
 20
-289.09262945923172
 30
0.0
  0
SEQEND
  5
196
100
AcDbEntity
  8
一般
370
              15
  6
Continuous
 62
               7
  0
POLYLINE
  5
197
100
AcDbEntity
  8
一般
370
              15
  6
Continuous
 62
               7
100
AcDb2dPolyline
 66
               1
 10
0.0
 20
0.0
 30
0.0
 70
               1
 75
               5
  0
VERTEX
  5
198
100
AcDbEntity
  8
一般
370
              15
  6
Continuous
 62
               7
100
AcDbVertex
100
AcDb2dVertex
 10
-72.5
 20
-256.09262945923172
 30
0.0
  0
VERTEX
  5
199
100
AcDbEntity
  8
一般
370
              15
  6
Continuous
 62
               7
100
AcDbVertex
100
AcDb2dVertex
 10
-114.5
 20
-256.09262945923172
 30
0.0
  0
VERTEX
  5
19A
100
AcDbEntity
  8
一般
370
              15
  6
Continuous
 62
               7
100
AcDbVertex
100
AcDb2dVertex
 10
-114.5
 20
-119.09262945923172
 30
0.0
  0
VERTEX
  5
19B
100
AcDbEntity
  8
一般
370
              15
  6
Continuous
 62
               7
100
AcDbVertex
100
AcDb2dVertex
 10
-130.5
 20
-119.09262945923172
 30
0.0
  0
VERTEX
  5
19C
100
AcDbEntity
  8
一般
370
              15
  6
Continuous
 62
               7
100
AcDbVertex
100
AcDb2dVertex
 10
-130.5
 20
-272.09262945923172
 30
0.0
  0
VERTEX
  5
19D
100
AcDbEntity
  8
一般
370
              15
  6
Continuous
 62
               7
100
AcDbVertex
100
AcDb2dVertex
 10
-72.5
 20
-272.09262945923172
 30
0.0
  0
SEQEND
  5
19E
100
AcDbEntity
  8
一般
370
              15
  6
Continuous
 62
               7
  0
POLYLINE
  5
19F
100
AcDbEntity
  8
一般
370
              15
  6
Continuous
 62
               7
100
AcDb2dPolyline
 66
               1
 10
0.0
 20
0.0
 30
0.0
 70
               1
 75
               5
  0
VERTEX
  5
1A0
100
AcDbEntity
  8
一般
370
              15
  6
Continuous
 62
               7
100
AcDbVertex
100
AcDb2dVertex
 10
-134.5
 20
-116.09262945923172
 30
0.0
  0
VERTEX
  5
1A1
100
AcDbEntity
  8
一般
370
              15
  6
Continuous
 62
               7
100
AcDbVertex
100
AcDb2dVertex
 10
-110.5
 20
-116.09262945923172
 30
0.0
  0
VERTEX
  5
1A2
100
AcDbEntity
  8
一般
370
              15
  6
Continuous
 62
               7
100
AcDbVertex
100
AcDb2dVertex
 10
-110.5
 20
-119.09262945923172
 30
0.0
  0
VERTEX
  5
1A3
100
AcDbEntity
  8
一般
370
              15
  6
Continuous
 62
               7
100
AcDbVertex
100
AcDb2dVertex
 10
-134.5
 20
-119.09262945923172
 30
0.0
  0
SEQEND
  5
1A4
100
AcDbEntity
  8
一般
370
              15
  6
Continuous
 62
               7
  0
LINE
  5
1A5
100
AcDbEntity
  8
一般
370
              15
  6
Continuous
 62
               7
100
AcDbLine
 10
-114.5
 20
-256.09262945923172
 30
0.0
 11
-130.5
 21
-272.09262945923172
 31
0.0
  0
ENDBLK
  5
1A6
100
AcDbEntity
  8
一般
100
AcDbBlockEnd
  0
BLOCK
  5
1A7
100
AcDbEntity
  8
一般
100
AcDbBlockBegin
  2
グループ-7
 70
               0
 10
0.0
 20
0.0
 30
0.0
  3
グループ-7
  1

  0
INSERT
  5
1A8
100
AcDbEntity
  8
一般
 62
               7
100
AcDbBlockReference
  2
グループ-5
 10
0.0
 20
0.0
 30
0.0
  0
INSERT
  5
1A9
100
AcDbEntity
  8
一般
 62
               7
100
AcDbBlockReference
  2
グループ-6
 10
0.0
 20
0.0
 30
0.0
  0
ENDBLK
  5
1AA
100
AcDbEntity
  8
一般
100
AcDbBlockEnd
  0
ENDSEC
  0
SECTION
  2
ENTITIES
  0
MTEXT
  5
1AB
100
AcDbEntity
  8
一般
 62
               7
100
AcDbMText
 10
1906.1324865405218
 20
1844.536622392819
 30
0.0
 40
70.739293981481481
 41
933.86751345947823
 71
               1
 72
               1
  1
A52-PS
  7
Arial
 73
               1
 44
0.9673603504928806
  0
INSERT
  5
1AC
100
AcDbEntity
  8
寸法
 62
               7
100
AcDbBlockReference
  2
スケール1：5
 10
339.8193920339163
 20
89.390157022019821
 30
0.0
 41
2.0
 42
2.0
 43
2.0
  0
INSERT
  5
1AD
100
AcDbEntity
  8
一般
 62
               7
100
AcDbBlockReference
  2
グループ-3
 10
1450.0
 20
1020.0
 30
0.0
 41
2.0
 42
2.0
 43
2.0
  0
INSERT
  5
1AE
100
AcDbEntity
  8
一般
 62
               7
100
AcDbBlockReference
  2
グループ-4
 10
1450.0
 20
1020.0
 30
0.0
 41
2.0
 42
2.0
 43
2.0
  0
INSERT
  5
1AF
100
AcDbEntity
  8
一般
 62
               7
100
AcDbBlockReference
  2
グループ-7
 10
1450.0
 20
1020.0
 30
0.0
 41
2.0
 42
2.0
 43
2.0
  0
ENDSEC
  0
SECTION
  2
OBJECTS
  0
DICTIONARY
  5
19
100
AcDbDictionary
280
               0
281
               1
  3
ACAD_GROUP
350
1A
  3
ACAD_MLINESTYLE
350
1B
  3
ACAD_LAYOUT
350
1E
  3
ACAD_PLOTSETTINGS
350
22
  3
ACAD_PLOTSTYLENAME
350
1F
  3
ACAD_WIPEOUT_VARS
350
23
  0
DICTIONARY
  5
1A
102
{ACAD_REACTORS
330
19
102
}
100
AcDbDictionary
280
               0
281
               1
  0
DICTIONARY
  5
1B
102
{ACAD_REACTORS
330
19
102
}
100
AcDbDictionary
280
               0
281
               1
  3
Standard
350
1C
  0
MLINESTYLE
  5
1C
102
{ACAD_REACTORS
330
1B
102
}
100
AcDbMlineStyle
  2
Standard
 70
               0
  3

 62
               0
 51
90.0
 52
90.0
 71
               2
 49
0.5
 62
             256
  6
ByLayer
 49
-0.5
 62
             256
  6
ByLayer
  0
ACDBDICTIONARYWDFLT
  5
1F
102
{ACAD_REACTORS
330
19
102
}
100
AcDbDictionary
281
               1
  3
Normal
350
1D
100
AcDbDictionaryWithDefault
340
1D
  0
ACDBPLACEHOLDER
  5
1D
102
{ACAD_REACTORS
330
1F
102
}
  0
LAYOUT
  5
20
102
{ACAD_REACTORS
330
1E
102
}
100
AcDbPlotSettings
  1

  2

  4

  6

 40
0.0
 41
0.0
 42
0.0
 43
0.0
 44
0.0
 45
0.0
 46
0.0
 47
0.0
 48
0.0
 49
0.0
140
0.0
141
0.0
142
1.0
143
1.0
 70
            1024
 72
               0
 73
               0
 74
               0
  7

 75
               0
147
1.0
148
0.0
149
0.0
100
AcDbLayout
  1
Model
 70
               0
 71
               0
 10
0.0
 20
0.0
 11
0.0
 21
0.0
 12
0.0
 22
0.0
 32
0.0
 14
0.0
 24
0.0
 34
0.0
 15
0.0
 25
0.0
 35
0.0
146
0.0
 13
0.0
 23
0.0
 33
0.0
 16
0.0
 26
0.0
 36
0.0
 17
0.0
 27
0.0
 37
0.0
 76
               0
330
A
331
0
345
0
346
0
  0
LAYOUT
  5
21
102
{ACAD_REACTORS
330
1E
102
}
100
AcDbPlotSettings
  1

  2

  4

  6

 40
0.0
 41
0.0
 42
0.0
 43
0.0
 44
0.0
 45
0.0
 46
0.0
 47
0.0
 48
0.0
 49
0.0
140
0.0
141
0.0
142
1.0
143
1.0
 70
               0
 72
               0
 73
               0
 74
               0
  7

 75
               0
147
1.0
148
0.0
149
0.0
100
AcDbLayout
  1
Layout1
 70
               0
 71
               0
 10
0.0
 20
0.0
 11
0.0
 21
0.0
 12
0.0
 22
0.0
 32
0.0
 14
0.0
 24
0.0
 34
0.0
 15
0.0
 25
0.0
 35
0.0
146
0.0
 13
0.0
 23
0.0
 33
0.0
 16
0.0
 26
0.0
 36
0.0
 17
0.0
 27
0.0
 37
0.0
 76
               0
330
B
331
0
345
0
346
0
  0
DICTIONARY
  5
1E
102
{ACAD_REACTORS
330
19
102
}
100
AcDbDictionary
280
               0
281
               1
  3
Layout1
350
21
  3
Model
350
20
  0
DICTIONARY
  5
22
102
{ACAD_REACTORS
330
19
102
}
100
AcDbDictionary
280
               0
281
               1
  0
WIPEOUTVARIABLES
  5
23
100
AcDbWipeoutVariables
 70
               0
  0
ENDSEC
  0
EOF
