  0
SECTION
  2
HEADER
  9
$ACADVER
  1
AC1018
  9
$ACADMAINTVER
 70
     0
  9
$DWGCODEPAGE
  3
ANSI_932
  9
$INSBASE
 10
0.0
 20
0.0
 30
0.0
  9
$EXTMIN
 10
129.140625
 20
103.0
 30
0.0
  9
$EXTMAX
 10
2570.0
 20
1862.697328411338
 30
0.0
  9
$LIMMIN
 10
0.0
 20
0.0
  9
$LIMMAX
 10
0.0
 20
0.0
  9
$ORTHOMODE
 70
     0
  9
$REGENMODE
 70
     1
  9
$FILLMODE
 70
     1
  9
$QTEXTMODE
 70
     0
  9
$MIRRTEXT
 70
     1
  9
$LTSCALE
 40
50.8
  9
$ATTMODE
 70
     1
  9
$TEXTSIZE
 40
0.2
  9
$TRACEWID
 40
1.0
  9
$TEXTSTYLE
  7
Standard
  9
$CLAYER
  8
一般
  9
$CELTYPE
  6
Continuous
  9
$CECOLOR
 62
   256
  9
$CELTSCALE
 40
1.0
  9
$DISPSILH
 70
     0
  9
$DIMSCALE
 40
1.0
  9
$DIMASZ
 40
0.18
  9
$DIMEXO
 40
0.0625
  9
$DIMDLI
 40
0.38
  9
$DIMRND
 40
0.0
  9
$DIMDLE
 40
0.0
  9
$DIMEXE
 40
0.18
  9
$DIMTP
 40
0.0
  9
$DIMTM
 40
0.0
  9
$DIMTXT
 40
0.18
  9
$DIMCEN
 40
0.09
  9
$DIMTSZ
 40
0.0
  9
$DIMTOL
 70
     0
  9
$DIMLIM
 70
     0
  9
$DIMTIH
 70
     1
  9
$DIMTOH
 70
     1
  9
$DIMSE1
 70
     0
  9
$DIMSE2
 70
     0
  9
$DIMTAD
 70
     0
  9
$DIMZIN
 70
     0
  9
$DIMBLK
  1

  9
$DIMASO
 70
     1
  9
$DIMSHO
 70
     1
  9
$DIMPOST
  1

  9
$DIMAPOST
  1

  9
$DIMALT
 70
     0
  9
$DIMALTD
 70
     2
  9
$DIMALTF
 40
25.4
  9
$DIMLFAC
 40
1.0
  9
$DIMTOFL
 70
     0
  9
$DIMTVP
 40
0.0
  9
$DIMTIX
 70
     0
  9
$DIMSOXD
 70
     0
  9
$DIMSAH
 70
     0
  9
$DIMBLK1
  1

  9
$DIMBLK2
  1

  9
$DIMSTYLE
  2
Standard
  9
$DIMCLRD
 70
     0
  9
$DIMCLRE
 70
     0
  9
$DIMCLRT
 70
     0
  9
$DIMTFAC
 40
1.0
  9
$DIMGAP
 40
0.09
  9
$DIMJUST
 70
     0
  9
$DIMSD1
 70
     0
  9
$DIMSD2
 70
     0
  9
$DIMTOLJ
 70
     1
  9
$DIMTZIN
 70
     0
  9
$DIMALTZ
 70
     0
  9
$DIMALTTZ
 70
     0
  9
$DIMUPT
 70
     0
  9
$DIMDEC
 70
     4
  9
$DIMTDEC
 70
     4
  9
$DIMALTU
 70
     2
  9
$DIMALTTD
 70
     2
  9
$DIMTXSTY
  7
Standard
  9
$DIMAUNIT
 70
     0
  9
$DIMADEC
 70
     0
  9
$DIMALTRND
 40
0.0
  9
$DIMAZIN
 70
     0
  9
$DIMDSEP
 70
     0
  9
$DIMATFIT
 70
     3
  9
$DIMFRAC
 70
     0
  9
$DIMLDRBLK
  1

  9
$DIMLUNIT
 70
     2
  9
$DIMLWD
 70
     0
  9
$DIMLWE
 70
     0
  9
$DIMTMOVE
 70
     0
  9
$LUNITS
 70
     2
  9
$LUPREC
 70
     4
  9
$SKETCHINC
 40
0.1
  9
$FILLETRAD
 40
0.0
  9
$AUNITS
 70
     0
  9
$AUPREC
 70
     0
  9
$MENU
  1
acad
  9
$ELEVATION
 40
0.0
  9
$PELEVATION
 40
0.0
  9
$THICKNESS
 40
0.0
  9
$LIMCHECK
 70
     0
  9
$CHAMFERA
 40
0.0
  9
$CHAMFERB
 40
0.0
  9
$CHAMFERC
 40
0.0
  9
$CHAMFERD
 40
0.0
  9
$SKPOLY
 70
     0
  9
$TDCREATE
 40
2458276.408541667
  9
$TDUCREATE
 40
0.0
  9
$TDUPDATE
 40
2458276.408541667
  9
$TDUUPDATE
 40
0.0
  9
$TDINDWG
 40
0.0
  9
$TDUSRTIMER
 40
0.0
  9
$USRTIMER
 70
     1
  9
$ANGBASE
 50
0.0
  9
$ANGDIR
 70
     0
  9
$PDMODE
 70
     1
  9
$PDSIZE
 40
-2.0
  9
$PLINEWID
 40
0.0
  9
$SPLFRAME
 70
     0
  9
$SPLINETYPE
 70
     6
  9
$SPLINESEGS
 70
     8
  9
$HANDSEED
  5
C2
  9
$SURFTAB1
 70
     6
  9
$SURFTAB2
 70
     6
  9
$SURFTYPE
 70
     6
  9
$SURFU
 70
     6
  9
$SURFV
 70
     6
  9
$UCSBASE
  2

  9
$UCSNAME
  2

  9
$UCSORG
 10
0.0
 20
0.0
 30
0.0
  9
$UCSXDIR
 10
1.0
 20
0.0
 30
0.0
  9
$UCSYDIR
 10
0.0
 20
1.0
 30
0.0
  9
$UCSORTHOREF
  2

  9
$UCSORTHOVIEW
 70
     0
  9
$UCSORGTOP
 10
0.0
 20
0.0
 30
0.0
  9
$UCSORGBOTTOM
 10
0.0
 20
0.0
 30
0.0
  9
$UCSORGLEFT
 10
0.0
 20
0.0
 30
0.0
  9
$UCSORGRIGHT
 10
0.0
 20
0.0
 30
0.0
  9
$UCSORGFRONT
 10
0.0
 20
0.0
 30
0.0
  9
$UCSORGBACK
 10
0.0
 20
0.0
 30
0.0
  9
$PUCSBASE
  2

  9
$PUCSNAME
  2

  9
$PUCSORG
 10
0.0
 20
0.0
 30
0.0
  9
$PUCSXDIR
 10
1.0
 20
0.0
 30
0.0
  9
$PUCSYDIR
 10
0.0
 20
1.0
 30
0.0
  9
$PUCSORTHOREF
  2

  9
$PUCSORTHOVIEW
 70
     0
  9
$PUCSORGTOP
 10
0.0
 20
0.0
 30
0.0
  9
$PUCSORGBOTTOM
 10
0.0
 20
0.0
 30
0.0
  9
$PUCSORGLEFT
 10
0.0
 20
0.0
 30
0.0
  9
$PUCSORGRIGHT
 10
0.0
 20
0.0
 30
0.0
  9
$PUCSORGFRONT
 10
0.0
 20
0.0
 30
0.0
  9
$PUCSORGBACK
 10
0.0
 20
0.0
 30
0.0
  9
$USERI1
 70
     0
  9
$USERI2
 70
     0
  9
$USERI3
 70
     0
  9
$USERI4
 70
     0
  9
$USERI5
 70
     0
  9
$USERR1
 40
0.0
  9
$USERR2
 40
0.0
  9
$USERR3
 40
0.0
  9
$USERR4
 40
0.0
  9
$USERR5
 40
0.0
  9
$WORLDVIEW
 70
     1
  9
$SHADEDGE
 70
     3
  9
$SHADEDIF
 70
    70
  9
$TILEMODE
 70
     1
  9
$MAXACTVP
 70
    64
  9
$PINSBASE
 10
0.0
 20
0.0
 30
0.0
  9
$PLIMCHECK
 70
     0
  9
$PEXTMIN
 10
1.000000000000000E+20
 20
1.000000000000000E+20
 30
1.000000000000000E+20
  9
$PEXTMAX
 10
-1.000000000000000E+20
 20
-1.000000000000000E+20
 30
-1.000000000000000E+20
  9
$PLIMMIN
 10
0.0
 20
0.0
  9
$PLIMMAX
 10
12.0
 20
9.0
  9
$UNITMODE
 70
     0
  9
$VISRETAIN
 70
     0
  9
$PLINEGEN
 70
     1
  9
$PSLTSCALE
 70
     0
  9
$TREEDEPTH
 70
  3020
  9
$CMLSTYLE
  2
Standard
  9
$CMLJUST
 70
     0
  9
$CMLSCALE
 40
1.0
  9
$PROXYGRAPHICS
 70
     0
  9
$MEASUREMENT
 70
     1
  9
$CELWEIGHT
370
     0
  9
$ENDCAPS
280
     0
  9
$JOINSTYLE
280
     0
  9
$LWDISPLAY
290
     1
  9
$INSUNITS
 70
     4
  9
$HYPERLINKBASE
  1

  9
$STYLESHEET
  1

  9
$XEDIT
290
     1
  9
$CEPSNTYPE
380
     0
  9
$PSTYLEMODE
290
     1
  9
$FINGERPRINTGUID
  2

  9
$VERSIONGUID
  2

  9
$EXTNAMES
290
     1
  9
$PSVPSCALE
 40
0.0
  9
$OLESTARTUP
290
     0
  9
$SORTENTS
280
   127
  9
$INDEXCTL
280
     0
  9
$HIDETEXT
280
     1
  9
$XCLIPFRAME
290
     0
  9
$HALOGAP
280
     0
  9
$OBSCOLOR
 70
   257
  9
$OBSLTYPE
280
     0
  9
$INTERSECTIONDISPLAY
280
     0
  9
$INTERSECTIONCOLOR
 70
   257
  9
$DIMASSOC
280
     2
  9
$PROJECTNAME
  1

  0
ENDSEC
  0
SECTION
  2
CLASSES
  0
CLASS
  1
LWPOLYLINE
  2
AcDbPolyline
  3
AutoCAD 2000
 90
        0
 91
        3
280
     0
281
     1
  0
CLASS
  1
IMAGE
  2
AcDbRasterImage
  3
ISM
 90
      127
 91
        1
280
     0
281
     1
  0
CLASS
  1
OLE2FRAME
  2
AcDbOle2Frame
  3
AutoCAD 2000
 90
        0
 91
        3
280
     0
281
     1
  0
CLASS
  1
HATCH
  2
AcDbHatch
  3
AutoCAD 2000
 90
        0
 91
        3
280
     0
281
     1
  0
CLASS
  1
DICTIONARYVAR
  2
AcDbDictionaryVar
  3
ObjectDBX Classes
 90
        0
 91
        1
280
     0
281
     0
  0
CLASS
  1
RASTERVARIABLES
  2
AcDbRasterVariables
  3
ISM
 90
        0
 91
        1
280
     0
281
     0
  0
CLASS
  1
IMAGEDEF
  2
AcDbRasterImageDef
  3
ISM
 90
        0
 91
        1
280
     0
281
     0
  0
CLASS
  1
IMAGEDEF_REACTOR
  2
AcDbRasterImageDefReactor
  3
ISM
 90
        1
 91
        1
280
     0
281
     0
  0
CLASS
  1
IDBUFFER
  2
AcDbIdBuffer
  3
ObjectDBX Classes
 90
        0
 91
        1
280
     0
281
     0
  0
CLASS
  1
SPATIAL_FILTER
  2
AcDbSpatialFilter
  3
ObjectDBX Classes
 90
        0
 91
        1
280
     0
281
     0
  0
CLASS
  1
XRECORD
  2
AcDbXrecord
  3
AutoCAD 2000
 90
        0
 91
        3
280
     0
281
     0
  0
CLASS
  1
SORTENTSTABLE
  2
AcDbSortentsTable
  3
ObjectDBX Classes
 90
        0
 91
        1
280
     0
281
     0
  0
CLASS
  1
LAYER_INDEX
  2
AcDbLayerIndex
  3
ObjectDBX Classes
 90
        0
 91
        1
280
     0
281
     0
  0
CLASS
  1
SPATIAL_INDEX
  2
AcDbSpatialIndex
  3
AutoCAD 2000
 90
        0
 91
        1
280
     0
281
     0
  0
CLASS
  1
OBJECT_PTR
  2
CAseDLPNTableRecord
  3
"ASE-LPNTableRecord"
 90
        1
 91
        1
280
     1
281
     0
  0
CLASS
  1
LAYOUT
  2
AcDbLayout
  3
ObjectDBX Classes
 90
        0
 91
        3
280
     0
281
     0
  0
CLASS
  1
PLOTSETTINGS
  2
AcDbPlotSettings
  3
ObjectDBX Classes
 90
        0
 91
        1
280
     0
281
     0
  0
CLASS
  1
ACDBDICTIONARYWDFLT
  2
AcDbDictionaryWithDefault
  3
ObjectDBX Classes
 90
        0
 91
        1
280
     0
281
     0
  0
CLASS
  1
ACDBPLACEHOLDER
  2
AcDbPlaceHolder
  3
ObjectDBX Classes
 90
        0
 91
        3
280
     0
281
     0
  0
CLASS
  1
VBA_PROJECT
  2
AcDbVbaProject
  3
ObjectDBX Classes
 90
        0
 91
        3
280
     0
281
     0
  0
CLASS
  1
WIPEOUT
  2
AcDbWipeout
  3
WipeOut|AutoCAD Express Tool|expresstools@autodesk.com
 90
      127
 91
        1
280
     0
281
     1
  0
CLASS
  1
WIPEOUTVARIABLES
  2
AcDbWipeoutVariables
  3
WipeOut|AutoCAD Express Tool|expresstools@autodesk.com
 90
        0
 91
        1
280
     0
281
     0
  0
CLASS
  1
RTEXT
  2
RText
  3
RText|AutoCAD Express Tool|expresstools@autodesk.com
 90
        0
 91
        1
280
     0
281
     1
  0
CLASS
  1
ARCALIGNEDTEXT
  2
AcDbArcAlignedText
  3
ATEXT|AutoCAD Express Tool|expresstools@autodesk.com
 90
        0
 91
        1
280
     0
281
     1
  0
ENDSEC
  0
SECTION
  2
TABLES
  0
TABLE
  2
VPORT
  5
7
330
0
100
AcDbSymbolTable
 70
     1
  0
VPORT
  5
15
330
7
100
AcDbSymbolTableRecord
100
AcDbViewportTableRecord
  2
*ACTIVE
 70
     0
 10
0.0
 20
0.0
 11
1.0
 21
1.0
 12
1349.5703125
 22
982.8486642056689
 13
0.0
 23
0.0
 14
1.0
 24
1.0
 15
0.0
 25
0.0
 16
0.0
 26
0.0
 36
1.0
 17
0.0
 27
0.0
 37
0.0
 40
1759.697328411338
 41
0.688564
 42
50.0
 43
0.0
 44
0.0
 50
0.0
 51
0.0
 71
     0
 72
  2000
 73
     1
 74
     1
 75
     0
 76
     0
 77
     0
 78
     0
281
     0
 65
     0
110
0.0
120
0.0
130
0.0
111
1.0
121
0.0
131
0.0
112
0.0
122
1.0
132
0.0
 79
     0
146
0.0
  0
ENDTAB
  0
TABLE
  2
LTYPE
  5
4
330
0
100
AcDbSymbolTable
 70
    11
  0
LTYPE
  5
11
330
4
100
AcDbSymbolTableRecord
100
AcDbLinetypeTableRecord
  2
ByBlock
 70
     0
  3

 72
    65
 73
     0
 40
0.0
  0
LTYPE
  5
12
330
4
100
AcDbSymbolTableRecord
100
AcDbLinetypeTableRecord
  2
ByLayer
 70
     0
  3

 72
    65
 73
     0
 40
0.0
  0
LTYPE
  5
13
330
4
100
AcDbSymbolTableRecord
100
AcDbLinetypeTableRecord
  2
Continuous
 70
     0
  3
Solid line
 72
    65
 73
     0
 40
0.0
  0
LTYPE
  5
28
330
4
100
AcDbSymbolTableRecord
100
AcDbLinetypeTableRecord
  2
STYLE_01
 70
     0
  3

 72
    65
 73
     2
 40
0.41664
 49
0.20828
 74
     0
 49
-0.20836
 74
     0
  0
LTYPE
  5
29
330
4
100
AcDbSymbolTableRecord
100
AcDbLinetypeTableRecord
  2
STYLE_02
 70
     0
  3

 72
    65
 73
     2
 40
0.6944250000000001
 49
0.48607
 74
     0
 49
-0.2083550000000001
 74
     0
  0
LTYPE
  5
2A
330
4
100
AcDbSymbolTableRecord
100
AcDbLinetypeTableRecord
  2
STYLE_03
 70
     0
  3

 72
    65
 73
     2
 40
1.25
 49
1.04164
 74
     0
 49
-0.2083599999999999
 74
     0
  0
LTYPE
  5
2B
330
4
100
AcDbSymbolTableRecord
100
AcDbLinetypeTableRecord
  2
STYLE_04
 70
     0
  3

 72
    65
 73
     2
 40
1.52771
 49
1.319425
 74
     0
 49
-0.208285
 74
     0
  0
LTYPE
  5
2C
330
4
100
AcDbSymbolTableRecord
100
AcDbLinetypeTableRecord
  2
STYLE_05
 70
     0
  3

 72
    65
 73
     2
 40
0.20828
 49
0.069425
 74
     0
 49
-0.138855
 74
     0
  0
LTYPE
  5
2D
330
4
100
AcDbSymbolTableRecord
100
AcDbLinetypeTableRecord
  2
STYLE_06
 70
     0
  3

 72
    65
 73
     4
 40
1.04164
 49
0.625
 74
     0
 49
-0.20828
 74
     0
 49
0.06943
 74
     0
 49
-0.13893
 74
     0
  0
LTYPE
  5
2E
330
4
100
AcDbSymbolTableRecord
100
AcDbLinetypeTableRecord
  2
STYLE_07
 70
     0
  3

 72
    65
 73
     6
 40
1.875
 49
0.625
 74
     0
 49
-0.20828
 74
     0
 49
0.6250000000000001
 74
     0
 49
-0.2083599999999999
 74
     0
 49
0.06943
 74
     0
 49
-0.1389299999999999
 74
     0
  0
LTYPE
  5
2F
330
4
100
AcDbSymbolTableRecord
100
AcDbLinetypeTableRecord
  2
STYLE_08
 70
     0
  3

 72
    65
 73
     6
 40
1.25
 49
0.625
 74
     0
 49
-0.20828
 74
     0
 49
0.06943
 74
     0
 49
-0.13893
 74
     0
 49
0.0694299999999999
 74
     0
 49
-0.13893
 74
     0
  0
LTYPE
  5
30
330
4
100
AcDbSymbolTableRecord
100
AcDbLinetypeTableRecord
  2
STYLE_09
 70
     0
  3

 72
    65
 73
     4
 40
5.0
 49
3.75
 74
     0
 49
-0.2777849999999998
 74
     0
 49
0.6944300000000003
 74
     0
 49
-0.2777849999999998
 74
     0
  0
LTYPE
  5
31
330
4
100
AcDbSymbolTableRecord
100
AcDbLinetypeTableRecord
  2
STYLE_10
 70
     0
  3

 72
    65
 73
     6
 40
5.9375
 49
3.75
 74
     0
 49
-0.2777849999999998
 74
     0
 49
0.6944300000000003
 74
     0
 49
-0.2777849999999998
 74
     0
 49
0.625
 74
     0
 49
-0.3125
 74
     0
  0
ENDTAB
  0
TABLE
  2
LAYER
  5
2
330
0
100
AcDbSymbolTable
 70
     4
  0
LAYER
  5
14
330
2
100
AcDbSymbolTableRecord
100
AcDbLayerTableRecord
  2
0
 70
     0
 62
     7
  6
Continuous
370
    -3
390
1D
  0
LAYER
  5
32
330
2
100
AcDbSymbolTableRecord
100
AcDbLayerTableRecord
  2
一般
 70
     0
 62
     7
  6
Continuous
370
     5
390
1D
  0
LAYER
  5
33
330
2
100
AcDbSymbolTableRecord
100
AcDbLayerTableRecord
  2
寸法
 70
     0
 62
     7
  6
Continuous
370
     5
390
1D
  0
LAYER
  5
34
330
2
100
AcDbSymbolTableRecord
100
AcDbLayerTableRecord
  2
排水
 70
     0
 62
     7
  6
Continuous
370
    15
390
1D
  0
ENDTAB
  0
TABLE
  2
STYLE
  5
3
330
0
100
AcDbSymbolTable
 70
     3
  0
STYLE
  5
17
330
3
100
AcDbSymbolTableRecord
100
AcDbTextStyleTableRecord
  2
Standard
 70
     0
 40
0.0
 41
1.0
 50
0.0
 71
     0
 42
0.0
  3
txt
  4
BIGFONT.SHX
  0
STYLE
  5
26
330
3
100
AcDbSymbolTableRecord
100
AcDbTextStyleTableRecord
  2
Arial
 70
     0
 40
0.0
 41
1.0
 50
0.0
 71
     0
 42
0.0
  3

  4
Arial
1001
ACAD
1000
Arial
1071
        0
  0
STYLE
  5
27
330
3
100
AcDbSymbolTableRecord
100
AcDbTextStyleTableRecord
  2
ＭＳ ゴシック
 70
     0
 40
0.0
 41
1.0
 50
0.0
 71
     0
 42
0.0
  3

  4
ＭＳ ゴシック
1001
ACAD
1000
ＭＳ ゴシック
1071
        0
  0
ENDTAB
  0
TABLE
  2
VIEW
  5
5
330
0
100
AcDbSymbolTable
 70
     0
  0
ENDTAB
  0
TABLE
  2
UCS
  5
6
330
0
100
AcDbSymbolTable
 70
     0
  0
ENDTAB
  0
TABLE
  2
APPID
  5
8
330
0
100
AcDbSymbolTable
 70
     1
  0
APPID
  5
16
330
8
100
AcDbSymbolTableRecord
100
AcDbRegAppTableRecord
  2
ACAD
 70
     0
  0
ENDTAB
  0
TABLE
  2
DIMSTYLE
  5
9
330
0
100
AcDbSymbolTable
 70
     1
100
AcDbDimStyleTable
  0
DIMSTYLE
105
18
330
9
100
AcDbSymbolTableRecord
100
AcDbDimStyleTableRecord
  2
Standard
 70
     0
340
17
  0
ENDTAB
  0
TABLE
  2
BLOCK_RECORD
  5
1
330
0
100
AcDbSymbolTable
 70
     2
  0
BLOCK_RECORD
  5
A
330
1
100
AcDbSymbolTableRecord
100
AcDbBlockTableRecord
  2
*MODEL_SPACE
340
20
  0
BLOCK_RECORD
  5
B
330
1
100
AcDbSymbolTableRecord
100
AcDbBlockTableRecord
  2
*PAPER_SPACE
340
21
  0
BLOCK_RECORD
  5
24
330
1
100
AcDbSymbolTableRecord
100
AcDbBlockTableRecord
  2
グループ
340
0
102
{BLKREFS
331
42
102
}
  0
BLOCK_RECORD
  5
25
330
1
100
AcDbSymbolTableRecord
100
AcDbBlockTableRecord
  2
スケール1：5
340
0
102
{BLKREFS
331
45
102
}
  0
ENDTAB
  0
ENDSEC
  0
SECTION
  2
BLOCKS
  0
BLOCK
  5
D
330
A
100
AcDbEntity
  8
0
100
AcDbBlockBegin
  2
*MODEL_SPACE
 70
     0
 71
     0
 10
0.0
 20
0.0
 30
0.0
  3
*MODEL_SPACE
  1

  0
ENDBLK
  5
E
330
A
100
AcDbEntity
  8
0
100
AcDbBlockEnd
  0
BLOCK
  5
F
330
B
100
AcDbEntity
 67
     1
  8
0
100
AcDbBlockBegin
  2
*PAPER_SPACE
 70
     0
 71
     0
 10
0.0
 20
0.0
 30
0.0
  3
*PAPER_SPACE
  1

  0
ENDBLK
  5
10
330
B
100
AcDbEntity
 67
     1
  8
0
100
AcDbBlockEnd
  0
BLOCK
  5
35
330
24
100
AcDbEntity
  8
一般
100
AcDbBlockBegin
  2
グループ
 70
     0
 71
     0
 10
0.0
 20
0.0
 30
0.0
  3
グループ
  1

  0
MTEXT
  5
36
330
24
100
AcDbEntity
  8
一般
 62
     8
100
AcDbMText
 10
-61.59030398304185
 20
8.334205729166685
 30
0.0
 40
8.144205729166666
 41
7.361215932167568
 71
     1
 72
     1
  1
0
  7
ＭＳ ゴシック
 73
     1
 44
0.7828267384257843
  0
MTEXT
  5
37
330
24
100
AcDbEntity
  8
一般
 62
     8
100
AcDbMText
 10
-12.90969601695815
 20
8.334205729166685
 30
0.0
 40
8.144205729166666
 41
12.75
 71
     1
 72
     1
  1
50
  7
ＭＳ ゴシック
 73
     1
 44
0.7828267384257843
  0
MTEXT
  5
38
330
24
100
AcDbEntity
  8
一般
 62
     8
100
AcDbMText
 10
33.59030398304185
 20
8.334205729166685
 30
0.0
 40
8.144205729166666
 41
27.99999999999997
 71
     1
 72
     1
  1
100mm
  7
ＭＳ ゴシック
 73
     1
 44
0.7828267384257843
  0
LINE
  5
39
330
24
100
AcDbEntity
  8
寸法
 62
     8
370
    15
100
AcDbLine
 10
-7.909696016958151
 20
-1.291666666666629
 30
0.0
 11
-7.909696016958151
 21
-9.291666666666629
 31
0.0
  0
LWPOLYLINE
  5
3A
330
24
100
AcDbEntity
  8
一般
  6
Continuous
 62
     8
370
    15
100
AcDbPolyline
 90
        4
 70
     0
 43
0.0
 10
-57.90969601695815
 20
-1.291666666666629
 10
-57.90969601695815
 20
-9.291666666666629
 10
42.09030398304185
 20
-9.291666666666629
 10
42.09030398304185
 20
-1.291666666666629
  0
ENDBLK
  5
40
330
24
100
AcDbEntity
  8
一般
100
AcDbBlockEnd
  0
BLOCK
  5
41
330
25
100
AcDbEntity
  8
一般
100
AcDbBlockBegin
  2
スケール1：5
 70
     0
 71
     0
 10
0.0
 20
0.0
 30
0.0
  3
スケール1：5
  1

  0
INSERT
  5
42
330
25
100
AcDbEntity
  8
一般
 62
     7
100
AcDbBlockReference
  2
グループ
 10
0.0
 20
0.0
 30
0.0
  0
ENDBLK
  5
43
330
25
100
AcDbEntity
  8
一般
100
AcDbBlockEnd
  0
ENDSEC
  0
SECTION
  2
ENTITIES
  0
MTEXT
  5
44
330
A
100
AcDbEntity
  8
一般
 62
     7
100
AcDbMText
 10
1906.132486540522
 20
1839.347849244671
 30
0.0
 40
90.95052083333333
 41
663.8675134594782
 71
     1
 72
     1
  1
A15-P-WT
  7
Arial
 73
     1
 44
0.9673603504928806
  0
INSERT
  5
45
330
A
100
AcDbEntity
  8
一般
 62
     7
100
AcDbBlockReference
  2
スケール1：5
 10
1830.819392033916
 20
121.5833333333333
 30
0.0
 41
2.0
 42
2.0
 43
2.0
  0
LINE
  5
46
330
A
100
AcDbEntity
  8
一般
  6
Continuous
 62
     7
370
    30
100
AcDbLine
 10
1396.0
 20
774.0
 30
0.0
 11
1396.0
 21
482.0
 31
0.0
  0
LINE
  5
47
330
A
100
AcDbEntity
  8
一般
  6
Continuous
 62
     7
370
    30
100
AcDbLine
 10
129.140625
 20
1364.0
 30
0.0
 11
962.0
 21
1364.0
 31
0.0
  0
LINE
  5
48
330
A
100
AcDbEntity
  8
寸法
100
AcDbLine
 10
147.1442466506815
 20
1363.990569066459
 30
0.0
 11
147.1442466506815
 21
1344.695264373477
 31
0.0
  0
SOLID
  5
49
330
A
100
AcDbEntity
  8
寸法
100
AcDbTrace
 10
147.1442466506815
 20
1363.990569066459
 30
0.0
 11
152.5029034128875
 21
1343.991789769584
 31
0.0
 12
141.7855898884754
 22
1343.991789769584
 32
0.0
 13
141.7855898884754
 23
1343.991789769584
 33
0.0
  0
MTEXT
  5
4A
330
A
100
AcDbEntity
  8
寸法
100
AcDbMText
 10
140.4442466506816
 20
1340.480342498477
 30
0.0
 40
16.28841145833333
 41
28.40000000000009
 71
     1
 72
     1
  1
{\C7;\lWL}
  7
ＭＳ ゴシック
 73
     1
 44
0.7828267384257844
  0
LINE
  5
4B
330
A
100
AcDbEntity
  8
寸法
100
AcDbLine
 10
1393.751817244773
 20
756.9277261942111
 30
0.0
 11
1374.456512551792
 21
756.9277261942111
 31
0.0
  0
SOLID
  5
4C
330
A
100
AcDbEntity
  8
寸法
100
AcDbTrace
 10
1393.751817244773
 20
756.9277261942111
 30
0.0
 11
1373.753037947898
 21
751.5690694320052
 31
0.0
 12
1373.753037947898
 22
762.286382956417
 32
0.0
 13
1373.753037947898
 23
762.286382956417
 33
0.0
  0
MTEXT
  5
4D
330
A
100
AcDbEntity
  8
寸法
100
AcDbMText
 10
1349.8
 20
764.6684114583335
 30
0.0
 40
16.28841145833333
 41
28.40000000000009
 71
     1
 72
     1
  1
{\C7;\lWL}
  7
ＭＳ ゴシック
 73
     1
 44
0.7828267384257844
  0
ARC
  5
4E
330
A
100
AcDbEntity
  8
一般
  6
STYLE_01
 62
     7
370
     5
100
AcDbCircle
 10
1276.3
 20
563.1381421454886
 30
0.0
 40
104.4030650891055
100
AcDbArc
 50
0.0
 51
324.9216703540316
  0
LWPOLYLINE
  5
4F
330
A
100
AcDbEntity
  8
一般
  6
Continuous
 62
   253
370
     5
100
AcDbPolyline
 90
        8
 70
   129
 43
0.0
 10
696.0
 20
1164.0
 42
0.414213562373095
 10
716.0
 20
1184.0
 10
716.0
 20
1304.0
 42
0.414213562373095
 10
696.0
 20
1324.0
 10
436.0
 20
1324.0
 42
0.414213562373095
 10
416.0
 20
1304.0
 10
416.0
 20
1184.0
 42
0.414213562373095
 10
436.0
 20
1164.0
  0
LWPOLYLINE
  5
50
330
A
100
AcDbEntity
  8
一般
  6
Continuous
 62
     7
370
    15
100
AcDbPolyline
 90
        6
 70
   129
 43
0.0
 10
746.0
 20
532.0
 42
0.414213562373095
 10
756.0
 20
542.0
 10
756.0
 20
692.0
 10
376.0
 20
692.0
 10
376.0
 20
542.0
 42
0.414213562373095
 10
386.0
 20
532.0
  0
LWPOLYLINE
  5
51
330
A
100
AcDbEntity
  8
一般
  6
Continuous
 62
     7
370
    15
100
AcDbPolyline
 90
        6
 70
   129
 43
0.0
 10
386.0
 20
672.0
 10
746.0
 20
672.0
 42
0.414213562373095
 10
756.0
 20
682.0
 10
756.0
 20
692.0
 10
376.0
 20
692.0
 10
376.0
 20
682.0
 42
0.414213562373095
  0
LWPOLYLINE
  5
52
330
A
100
AcDbEntity
  8
一般
  6
Continuous
 62
     7
370
    15
100
AcDbPolyline
 90
        8
 70
     1
 43
0.0
 10
691.0
 20
608.0
 10
711.0
 20
608.0
 10
711.0
 20
538.0
 10
421.0
 20
538.0
 10
421.0
 20
598.0
 10
441.0
 20
598.0
 10
441.0
 20
588.0
 10
691.0
 20
588.0
  0
LWPOLYLINE
  5
5C
330
A
100
AcDbEntity
  8
一般
  6
Continuous
 62
   253
370
     5
100
AcDbPolyline
 90
        6
 70
   128
 43
0.0
 10
716.0
 20
692.0
 10
716.0
 20
690.0
 42
-0.414213562373095
 10
714.0
 20
688.0
 10
418.0
 20
688.0
 42
-0.414213562373095
 10
416.0
 20
690.0
 10
416.0
 20
692.0
  0
CIRCLE
  5
5D
330
A
100
AcDbEntity
  8
一般
  6
Continuous
 62
     7
370
     5
100
AcDbCircle
 10
465.7832597569454
 20
638.0
 30
0.0
 40
10.0000000000001
  0
CIRCLE
  5
5E
330
A
100
AcDbEntity
  8
一般
  6
Continuous
 62
     7
370
     5
100
AcDbCircle
 10
665.7832597569454
 20
638.0
 30
0.0
 40
10.0000000000001
  0
LWPOLYLINE
  5
5F
330
A
100
AcDbEntity
  8
一般
  6
Continuous
 62
     7
370
    15
100
AcDbPolyline
 90
        4
 70
     1
 43
0.0
 10
1286.0
 20
598.0
 10
1396.0
 20
598.0
 10
1396.0
 20
538.0
 10
1286.0
 20
538.0
  0
LWPOLYLINE
  5
65
330
A
100
AcDbEntity
  8
一般
  6
Continuous
 62
     7
370
    15
100
AcDbPolyline
 90
        4
 70
     1
 43
0.0
 10
1266.0
 20
608.0
 10
1286.0
 20
608.0
 10
1286.0
 20
538.0
 10
1266.0
 20
538.0
  0
LWPOLYLINE
  5
6B
330
A
100
AcDbEntity
  8
一般
  6
Continuous
 62
     7
370
    15
100
AcDbPolyline
 90
       12
 70
   129
 43
0.0
 10
1392.8
 20
678.8000000000002
 42
0.414213562373095
 10
1382.8
 20
688.8000000000002
 10
1169.2
 20
688.8000000000002
 42
0.414213562373095
 10
1159.2
 20
678.8000000000002
 10
1159.2
 20
672.0
 10
1156.0
 20
672.0
 10
1156.0
 20
682.0
 42
-0.414213562373095
 10
1166.0
 20
692.0
 10
1386.0
 20
692.0
 42
-0.414213562373095
 10
1396.0
 20
682.0
 10
1396.0
 20
532.0
 10
1392.8
 20
532.0
  0
LWPOLYLINE
  5
6C
330
A
100
AcDbEntity
  8
一般
  6
Continuous
 62
     7
370
     5
100
AcDbPolyline
 90
        4
 70
     0
 43
0.0
 10
1442.143593539449
 20
635.5
 10
1396.0
 20
635.5
 10
1396.0
 20
640.5
 10
1442.143593539449
 20
640.5
  0
LINE
  5
72
330
A
100
AcDbEntity
  8
一般
  6
Continuous
 62
     7
370
     5
100
AcDbLine
 10
1446.473720558371
 20
638.0
 30
0.0
 11
1442.143593539449
 21
640.5
 31
0.0
  0
LINE
  5
73
330
A
100
AcDbEntity
  8
一般
  6
Continuous
 62
     7
370
     5
100
AcDbLine
 10
1446.473720558371
 20
638.0
 30
0.0
 11
1442.143593539449
 21
635.5
 31
0.0
  0
LWPOLYLINE
  5
74
330
A
100
AcDbEntity
  8
一般
  6
Continuous
 62
     7
370
     5
100
AcDbPolyline
 90
        4
 70
     1
 43
0.0
 10
1398.021863787473
 20
641.0
 10
1400.021863787473
 20
641.0
 10
1400.021863787473
 20
635.0
 10
1398.021863787473
 20
635.0
  0
LWPOLYLINE
  5
7A
330
A
100
AcDbEntity
  8
一般
  6
Continuous
 62
     7
370
     5
100
AcDbPolyline
 90
        4
 70
     1
 43
0.0
 10
1402.021863787473
 20
641.0
 10
1404.021863787473
 20
641.0
 10
1404.021863787473
 20
635.0
 10
1402.021863787473
 20
635.0
  0
LWPOLYLINE
  5
80
330
A
100
AcDbEntity
  8
一般
  6
Continuous
 62
     7
370
     5
100
AcDbPolyline
 90
        4
 70
     1
 43
0.0
 10
1406.021863787473
 20
641.0
 10
1408.021863787473
 20
641.0
 10
1408.021863787473
 20
635.0
 10
1406.021863787473
 20
635.0
  0
LWPOLYLINE
  5
86
330
A
100
AcDbEntity
  8
一般
  6
Continuous
 62
     7
370
     5
100
AcDbPolyline
 90
        4
 70
     1
 43
0.0
 10
1410.021863787473
 20
641.0
 10
1412.021863787473
 20
641.0
 10
1412.021863787473
 20
635.0
 10
1410.021863787473
 20
635.0
  0
LWPOLYLINE
  5
8C
330
A
100
AcDbEntity
  8
一般
  6
Continuous
 62
     7
370
     5
100
AcDbPolyline
 90
        4
 70
     1
 43
0.0
 10
1414.021863787473
 20
641.0
 10
1416.021863787473
 20
641.0
 10
1416.021863787473
 20
635.0
 10
1414.021863787473
 20
635.0
  0
LWPOLYLINE
  5
92
330
A
100
AcDbEntity
  8
一般
  6
Continuous
 62
     7
370
     5
100
AcDbPolyline
 90
        4
 70
     1
 43
0.0
 10
1418.021863787473
 20
641.0
 10
1420.021863787473
 20
641.0
 10
1420.021863787473
 20
635.0
 10
1418.021863787473
 20
635.0
  0
LWPOLYLINE
  5
98
330
A
100
AcDbEntity
  8
一般
  6
Continuous
 62
     7
370
     5
100
AcDbPolyline
 90
        4
 70
     1
 43
0.0
 10
1422.021863787473
 20
641.0
 10
1424.021863787473
 20
641.0
 10
1424.021863787473
 20
635.0
 10
1422.021863787473
 20
635.0
  0
LWPOLYLINE
  5
9E
330
A
100
AcDbEntity
  8
一般
  6
Continuous
 62
     7
370
     5
100
AcDbPolyline
 90
        4
 70
     1
 43
0.0
 10
1426.021863787473
 20
641.0
 10
1428.021863787473
 20
641.0
 10
1428.021863787473
 20
635.0
 10
1426.021863787473
 20
635.0
  0
LWPOLYLINE
  5
A4
330
A
100
AcDbEntity
  8
一般
  6
Continuous
 62
     7
370
     5
100
AcDbPolyline
 90
        4
 70
     1
 43
0.0
 10
1430.021863787473
 20
641.0
 10
1432.021863787473
 20
641.0
 10
1432.021863787473
 20
635.0
 10
1430.021863787473
 20
635.0
  0
LWPOLYLINE
  5
AA
330
A
100
AcDbEntity
  8
一般
  6
Continuous
 62
     7
370
     5
100
AcDbPolyline
 90
        4
 70
     1
 43
0.0
 10
1434.021863787473
 20
641.0
 10
1436.021863787473
 20
641.0
 10
1436.021863787473
 20
635.0
 10
1434.021863787473
 20
635.0
  0
LWPOLYLINE
  5
B0
330
A
100
AcDbEntity
  8
一般
  6
Continuous
 62
     7
370
     5
100
AcDbPolyline
 90
        4
 70
     1
 43
0.0
 10
1438.021863787473
 20
641.0
 10
1440.021863787473
 20
641.0
 10
1440.021863787473
 20
635.0
 10
1438.021863787473
 20
635.0
  0
LWPOLYLINE
  5
B6
330
A
100
AcDbEntity
  8
一般
  6
Continuous
 62
     7
370
     5
100
AcDbPolyline
 90
        4
 70
     1
 43
0.0
 10
1382.8
 20
648.0
 10
1392.8
 20
648.0
 10
1392.8
 20
628.0
 10
1382.8
 20
628.0
  0
LWPOLYLINE
  5
BC
330
A
100
AcDbEntity
  8
一般
  6
Continuous
 62
     7
370
    15
100
AcDbPolyline
 90
        4
 70
     1
 43
0.0
 10
376.0
 20
1364.0
 10
756.0000000000001
 20
1364.0
 10
756.0000000000001
 20
1124.0
 10
376.0
 20
1124.0
  0
ENDSEC
  0
SECTION
  2
OBJECTS
  0
DICTIONARY
  5
19
330
0
100
AcDbDictionary
281
     1
  3
ACAD_GROUP
350
1A
  3
ACAD_LAYOUT
350
1E
  3
ACAD_MLINESTYLE
350
1B
  3
ACAD_PLOTSETTINGS
350
22
  3
ACAD_PLOTSTYLENAME
350
1F
  3
ACAD_WIPEOUT_VARS
350
23
  0
DICTIONARY
  5
1A
102
{ACAD_REACTORS
330
19
102
}
330
19
100
AcDbDictionary
281
     1
  0
DICTIONARY
  5
1E
102
{ACAD_REACTORS
330
19
102
}
330
19
100
AcDbDictionary
281
     1
  3
Layout1
350
21
  3
Model
350
20
  0
DICTIONARY
  5
1B
102
{ACAD_REACTORS
330
19
102
}
330
19
100
AcDbDictionary
281
     1
  3
Standard
350
1C
  0
DICTIONARY
  5
22
102
{ACAD_REACTORS
330
19
102
}
330
19
100
AcDbDictionary
281
     1
  0
ACDBDICTIONARYWDFLT
  5
1F
102
{ACAD_REACTORS
330
19
102
}
330
19
100
AcDbDictionary
281
     1
  3
Normal
350
1D
100
AcDbDictionaryWithDefault
340
1D
  0
WIPEOUTVARIABLES
  5
23
330
19
100
AcDbWipeoutVariables
 70
     0
  0
LAYOUT
  5
21
102
{ACAD_REACTORS
330
1E
102
}
330
1E
100
AcDbPlotSettings
  1

  2

  4

  6

 40
0.0
 41
0.0
 42
0.0
 43
0.0
 44
0.0
 45
0.0
 46
0.0
 47
0.0
 48
0.0
 49
0.0
140
0.0
141
0.0
142
1.0
143
1.0
 70
     0
 72
     0
 73
     0
 74
     0
  7

 75
     0
 76
     0
 77
     2
 78
   300
147
1.0
148
0.0
149
0.0
100
AcDbLayout
  1
Layout1
 70
     0
 71
     0
 10
0.0
 20
0.0
 11
0.0
 21
0.0
 12
0.0
 22
0.0
 32
0.0
 14
0.0
 24
0.0
 34
0.0
 15
0.0
 25
0.0
 35
0.0
146
0.0
 13
0.0
 23
0.0
 33
0.0
 16
0.0
 26
0.0
 36
0.0
 17
0.0
 27
0.0
 37
0.0
 76
     0
330
B
  0
LAYOUT
  5
20
102
{ACAD_REACTORS
330
1E
102
}
330
1E
100
AcDbPlotSettings
  1

  2

  4

  6

 40
0.0
 41
0.0
 42
0.0
 43
0.0
 44
0.0
 45
0.0
 46
0.0
 47
0.0
 48
0.0
 49
0.0
140
0.0
141
0.0
142
1.0
143
1.0
 70
  1024
 72
     0
 73
     0
 74
     0
  7

 75
     0
 76
     0
 77
     2
 78
   300
147
1.0
148
0.0
149
0.0
100
AcDbLayout
  1
Model
 70
     0
 71
     0
 10
0.0
 20
0.0
 11
0.0
 21
0.0
 12
0.0
 22
0.0
 32
0.0
 14
0.0
 24
0.0
 34
0.0
 15
0.0
 25
0.0
 35
0.0
146
0.0
 13
0.0
 23
0.0
 33
0.0
 16
0.0
 26
0.0
 36
0.0
 17
0.0
 27
0.0
 37
0.0
 76
     0
330
A
  0
MLINESTYLE
  5
1C
102
{ACAD_REACTORS
330
1B
102
}
330
1B
100
AcDbMlineStyle
  2
Standard
 70
     0
  3

 62
     0
 51
90.0
 52
90.0
 71
     2
 49
0.5
 62
   256
  6
BYLAYER
 49
-0.5
 62
   256
  6
BYLAYER
  0
ACDBPLACEHOLDER
  5
1D
102
{ACAD_REACTORS
330
1F
102
}
330
1F
  0
ENDSEC
  0
EOF
