  0
SECTION
  2
HEADER
  9
$ACADVER
  1
AC1009
  9
$INSBASE
 10
0
 20
0
 30
0
  9
$EXTMIN
 10
0
 20
0
  9
$EXTMAX
 10
1485
 20
1050
  9
$LIMMIN
 10
0
 20
0
  9
$LIMMAX
 10
1485
 20
1050
  9
$LTSCALE
 40
5
  0
ENDSEC
  0
SECTION
  2
TABLES
  0
TABLE
  2
LTYPE
 70
     9
  0
LTYPE
  2
CONTINUOUS
 70
    64
  3
実線
 72
    65
 73
     0
 40
0.0
  0
LTYPE
  2
DASHED1
 70
    64
  3
--  --  --  --  --  --  --  --  
 72
    65
 73
     2
 40
2.5
 49
1.25
 49
-1.25
  0
LTYPE
  2
DASHED2
 70
    64
  3
----    ----    ----    ----    
 72
    65
 73
     2
 40
5.0
 49
2.5
 49
-2.5
  0
LTYPE
  2
DASHED3
 70
    64
  3
------  ------  ------  ------  
 72
    65
 73
     2
 40
5.0
 49
3.75
 49
-1.25
  0
LTYPE
  2
CENTER1
 70
    64
  3
----- - ----- - ----- - ----- - 
 72
    65
 73
     4
 40
10.0
 49
6.25
 49
-1.25
 49
1.25
 49
-1.25
  0
LTYPE
  2
CENTER2
 70
    64
  3
----------  --  ----------  --  
 72
    65
 73
     4
 40
20.0
 49
12.5
 49
-2.5
 49
2.5
 49
-2.5
  0
LTYPE
  2
PHANTOM1
 70
    64
  3
--- - - --- - - --- - - --- - - 
 72
    65
 73
     6
 40
10.0
 49
3.25
 49
-1.25
 49
1.25
 49
-1.25
 49
1.25
 49
-1.25
  0
LTYPE
  2
PHANTOM2
 70
    64
  3
--------  -  -  --------  -  -  
 72
    65
 73
     6
 40
20.0
 49
10.0
 49
-2.5
 49
1.25
 49
-2.5
 49
1.25
 49
-2.5
  0
LTYPE
  2
DOT
 70
    64
  3
-   -   -   -   -   -   -   -   
 72
    65
 73
     2
 40
2.5
 49
0.625
 49
-1.875
  0
LTYPE
  2
DUMMY
 70
    64
  3
ダミー
 72
    65
 73
     0
 40
0.0
  0
LTYPE
  2
RAND1
 70
    64
  3
ランダム線1
 72
    65
 73
     4
 40
10.0
 49
1.0
 49
-2.0
 49
3.0
 49
-4.0
  0
LTYPE
  2
RAND2
 70
    64
  3
ランダム線2
 72
    65
 73
     4
 40
14.0
 49
2.0
 49
-3.0
 49
4.0
 49
-5.0
  0
LTYPE
  2
RAND3
 70
    64
  3
ランダム線3
 72
    65
 73
     4
 40
18.0
 49
3.0
 49
-4.0
 49
5.0
 49
-6.0
  0
LTYPE
  2
RAND4
 70
    64
  3
ランダム線4
 72
    65
 73
     4
 40
22.0
 49
4.0
 49
-5.0
 49
6.0
 49
-7.0
  0
LTYPE
  2
RAND5
 70
    64
  3
ランダム線5
 72
    65
 73
     4
 40
26.0
 49
5.0
 49
-6.0
 49
7.0
 49
-8.0
  0
LTYPE
  2
LONG1
 70
    64
  3
----------  --  ----------  --  
 72
    65
 73
     4
 40
40.0
 49
32.5
 49
-2.5
 49
2.5
 49
-2.5
  0
LTYPE
  2
LONG2
 70
    64
  3
--------  -  -  --------  -  -  
 72
    65
 73
     6
 40
40.0
 49
30.0
 49
-2.5
 49
1.25
 49
-2.5
 49
1.25
 49
-2.5
  0
LTYPE
  2
LONG3
 70
    64
  3
+++++++++++++++..+++++++++++++++
 72
    65
 73
     2
 40
40.0
 49
37.5
 49
-2.5
  0
LTYPE
  2
LONG4
 70
    64
  3
+++++++++++++++..+++++++++++++++
 72
    65
 73
     2
 40
80.0
 49
75.0
 49
-5.0
  0
LTYPE
  2
LONG5
 70
    64
  3
----------  --  ----------  --  
 72
    65
 73
     4
 40
60.0
 49
37.5
 49
-7.5
 49
7.5
 49
-7.5
  0
LTYPE
  2
dashed
 70
   64
  3
-------   -------------   ------
 72
   65
 73
    2
 40
7.5
 49
6
 49
-1.5
  0
LTYPE
  2
dashed_spaced
 70
   64
  3
----        --------        ----
 72
   65
 73
    2
 40
12
 49
6
 49
-6
  0
LTYPE
  2
long_dashed_dotted
 70
   64
  3
------------- --- --------------
 72
   65
 73
    4
 40
15.25
 49
12
 49
-1.5
 49
0.25
 49
-1.5
  0
LTYPE
  2
long_dashed_double-dotted
 70
   64
  3
----------- --- --- ------------
 72
   65
 73
    6
 40
17
 49
12
 49
-1.5
 49
0.25
 49
-1.5
 49
0.25
 49
-1.5
  0
LTYPE
  2
long_dashed_triplicate-dotted
 70
   64
  3
--------- --- --- --- ----------
 72
   65
 73
    8
 40
18.75
 49
12
 49
-1.5
 49
0.25
 49
-1.5
 49
0.25
 49
-1.5
 49
0.25
 49
-1.5
  0
LTYPE
  2
dotted
 70
   64
  3
   -       -       -       -    
 72
   65
 73
    2
 40
1.75
 49
0.25
 49
-1.5
  0
LTYPE
  2
chain
 70
   64
  3
-------------- -- --------------
 72
   65
 73
    4
 40
18.5
 49
12
 49
-1.5
 49
3.5
 49
-1.5
  0
LTYPE
  2
chain_double_dash
 70
   64
  3
------------ -- -- -------------
 72
   65
 73
    6
 40
23.5
 49
12
 49
-1.5
 49
3.5
 49
-1.5
 49
3.5
 49
-1.5
  0
LTYPE
  2
dashed_dotted
 70
   64
  3
-----------     -     ----------
 72
   65
 73
    4
 40
9.25
 49
6
 49
-1.5
 49
0.25
 49
-1.5
  0
LTYPE
  2
double-dashed_dotted
 70
   64
  3
------   -----------   -   -----
 72
   65
 73
    6
 40
16.75
 49
6
 49
-1.5
 49
6
 49
-1.5
 49
0.25
 49
-1.5
  0
LTYPE
  2
dashed_double-dotted
 70
   64
  3
---------    -    -    ---------
 72
   65
 73
    6
 40
11
 49
6
 49
-1.5
 49
0.25
 49
-1.5
 49
0.25
 49
-1.5
  0
LTYPE
  2
double-dashed_double-dotted
 70
   64
  3
-----   ---------   -   -   ----
 72
   65
 73
    8
 40
18.5
 49
6
 49
-1.5
 49
6
 49
-1.5
 49
0.25
 49
-1.5
 49
0.25
 49
-1.5
  0
LTYPE
  2
dashed_triplicate-dotted
 70
   64
  3
-------    -    -    -    ------
 72
   65
 73
    8
 40
12.75
 49
6
 49
-1.5
 49
0.25
 49
-1.5
 49
0.25
 49
-1.5
 49
0.25
 49
-1.5
  0
LTYPE
  2
double-dashed_triplicate-dotted
 70
   64
  3
-----  ---------  -  -  -  -----
 72
   65
 73
   10
 40
20.25
 49
6
 49
-1.5
 49
6
 49
-1.5
 49
0.25
 49
-1.5
 49
0.25
 49
-1.5
 49
0.25
 49
-1.5
  0
LTYPE
  2
undefined
 70
   64
  3
--------------------------------
 72
   65
 73
    0
 40
0
  0
LTYPE
  2
_
 70
   64
  3
                                
 72
   65
 73
    0
 40
0
  0
LTYPE
  2
__18
 70
   64
  3
                                
 72
   65
 73
    0
 40
0
  0
LTYPE
  2
__19
 70
   64
  3
                                
 72
   65
 73
    0
 40
0
  0
LTYPE
  2
__20
 70
   64
  3
                                
 72
   65
 73
    0
 40
0
  0
LTYPE
  2
__21
 70
   64
  3
                                
 72
   65
 73
    0
 40
0
  0
LTYPE
  2
__22
 70
   64
  3
                                
 72
   65
 73
    0
 40
0
  0
LTYPE
  2
__23
 70
   64
  3
                                
 72
   65
 73
    0
 40
0
  0
LTYPE
  2
__24
 70
   64
  3
                                
 72
   65
 73
    0
 40
0
  0
LTYPE
  2
__25
 70
   64
  3
                                
 72
   65
 73
    0
 40
0
  0
LTYPE
  2
__26
 70
   64
  3
                                
 72
   65
 73
    0
 40
0
  0
LTYPE
  2
__27
 70
   64
  3
                                
 72
   65
 73
    0
 40
0
  0
LTYPE
  2
__28
 70
   64
  3
                                
 72
   65
 73
    0
 40
0
  0
LTYPE
  2
__29
 70
   64
  3
                                
 72
   65
 73
    0
 40
0
  0
LTYPE
  2
__30
 70
   64
  3
                                
 72
   65
 73
    0
 40
0
  0
LTYPE
  2
__31
 70
   64
  3
                                
 72
   65
 73
    0
 40
0
  0
LTYPE
  2
__32
 70
   64
  3
                                
 72
   65
 73
    0
 40
0
  0
ENDTAB
  0
TABLE
  2
STYLE
  5
3
100
AcDbSymbolTable
 70
     1
  0
STYLE
  5
10
100
AcDbSymbolTableRecord
100
AcDbTextStyleTableRecord
  2
STANDARD
 70
     0
 40
0.0
 41
1.0
 50
0.0
 71
     0
 42
0.2
  3
txt
  4
bigfont.shx
  0
STYLE
  5
26
100
AcDbSymbolTableRecord
100
AcDbTextStyleTableRecord
  2
TATEGAKI
 70
    68
 40
0.0
 41
1.0
 50
0.0
 71
     0
 42
1.0
  3
txt
  4
bigfont.shx
  0
ENDTAB
  0
TABLE
  2
LAYER
 70
    3
  0
LAYER
  2
_0-0_
 70
   64
 62
    7
  6
CONTINUOUS
  0
LAYER
  2
_0-1_
 70
   64
 62
    7
  6
CONTINUOUS
  0
LAYER
  2
ADD_LINE
 70
   64
 62
    7
  6
CONTINUOUS
  0
ENDTAB
  0
ENDSEC
  0
SECTION
  2
BLOCKS
  0
ENDSEC
  0
SECTION
  2
ENTITIES
  0
LINE
  8
_0-1_
  6
CONTINUOUS
 62
    7
 10
158.36218550398542
 20
116.41367194275134
 11
158.36218550398542
 21
108.41366985129575
  0
LINE
  8
_0-0_
  6
CONTINUOUS
 62
    7
 10
108.36218336834406
 20
116.41367194275134
 11
108.36218336834406
 21
108.41366985129575
  0
LINE
  8
_0-0_
  6
CONTINUOUS
 62
    7
 10
108.36218336834406
 20
108.41366985129575
 11
208.36218763962677
 21
108.41366985129575
  0
LINE
  8
_0-0_
  6
CONTINUOUS
 62
    7
 10
208.36218763962677
 20
108.41366985129575
 11
208.36218763962677
 21
116.41367194275134
  0
LINE
  8
_0-0_
  6
CONTINUOUS
 62
    7
 10
281.93726852593733
 20
667.17785632748405
 11
532.93728493355411
 21
667.17785632748405
  0
LINE
  8
_0-0_
  6
CONTINUOUS
 62
    7
 10
301.93727375457638
 20
534.1778598328815
 11
512.93725783300215
 21
534.1778598328815
  0
LINE
  8
_0-0_
  6
CONTINUOUS
 62
    7
 10
301.93727375457638
 20
540.17785046551671
 11
512.93725783300215
 21
540.17785046551671
  0
LINE
  8
_0-0_
  6
CONTINUOUS
 62
    7
 10
409.18727035227892
 20
540.17785046551671
 11
409.18727035227892
 21
661.17786569484861
  0
LINE
  8
_0-0_
  6
CONTINUOUS
 62
    7
 10
405.68728310721264
 20
540.17785046551671
 11
405.68728310721264
 21
661.17786569484861
  0
LINE
  8
_0-0_
  6
CONTINUOUS
 62
    7
 10
281.93726852593733
 20
667.17785632748405
 11
281.93726852593733
 21
554.17784318960776
  0
LINE
  8
_0-0_
  6
CONTINUOUS
 62
    7
 10
532.93728493355411
 20
667.17785632748405
 11
532.93728493355411
 21
554.17784318960776
  0
LINE
  8
_0-0_
  6
CONTINUOUS
 62
    7
 10
287.93728103048551
 20
661.17786569484861
 11
526.93725055709308
 21
661.17786569484861
  0
LINE
  8
_0-0_
  6
CONTINUOUS
 62
    7
 10
526.93725055709308
 20
554.17784318960776
 11
526.93725055709308
 21
661.17786569484861
  0
LINE
  8
_0-0_
  6
CONTINUOUS
 62
    7
 10
510.50282644028823
 20
540.17785046551671
 11
510.50282644028823
 21
661.17786569484861
  0
LINE
  8
_0-0_
  6
CONTINUOUS
 62
    7
 10
507.00283919522201
 20
540.17785046551671
 11
507.00283919522201
 21
661.17786569484861
  0
LINE
  8
_0-0_
  6
CONTINUOUS
 62
    7
 10
430.50039961531354
 20
540.17785046551671
 11
430.50039961531354
 21
661.17786569484861
  0
LINE
  8
_0-0_
  6
CONTINUOUS
 62
    7
 10
427.00036862642145
 20
540.17785046551671
 11
427.00036862642145
 21
661.17786569484861
  0
LINE
  8
_0-0_
  6
CONTINUOUS
 62
    7
 10
450.0635133839022
 20
540.17785046551671
 11
450.0635133839022
 21
661.17786569484861
  0
LINE
  8
_0-0_
  6
CONTINUOUS
 62
    7
 10
446.56348239501006
 20
540.17785046551671
 11
446.56348239501006
 21
661.17786569484861
  0
LINE
  8
_0-0_
  6
CONTINUOUS
 62
    7
 10
469.62662715249076
 20
540.17785046551671
 11
469.62662715249076
 21
661.17786569484861
  0
LINE
  8
_0-0_
  6
CONTINUOUS
 62
    7
 10
466.12659616359872
 20
540.17785046551671
 11
466.12659616359872
 21
661.17786569484861
  0
LINE
  8
_0-0_
  6
CONTINUOUS
 62
    7
 10
489.18974092107936
 20
540.17785046551671
 11
489.18974092107936
 21
661.17786569484861
  0
LINE
  8
_0-0_
  6
CONTINUOUS
 62
    7
 10
485.68970993218733
 20
540.17785046551671
 11
485.68970993218733
 21
661.17786569484861
  0
LINE
  8
_0-0_
  6
CONTINUOUS
 62
    7
 10
304.3717051472903
 20
540.17785046551671
 11
304.3717051472903
 21
661.17786569484861
  0
LINE
  8
_0-0_
  6
CONTINUOUS
 62
    7
 10
307.87171426426949
 20
540.17785046551671
 11
307.87171426426949
 21
661.17786569484861
  0
LINE
  8
_0-0_
  6
CONTINUOUS
 62
    7
 10
384.3741538441779
 20
540.17785046551671
 11
384.3741538441779
 21
661.17786569484861
  0
LINE
  8
_0-0_
  6
CONTINUOUS
 62
    7
 10
387.87414108924423
 20
540.17785046551671
 11
387.87414108924423
 21
661.17786569484861
  0
LINE
  8
_0-0_
  6
CONTINUOUS
 62
    7
 10
364.81104007558935
 20
540.17785046551671
 11
364.81104007558935
 21
661.17786569484861
  0
LINE
  8
_0-0_
  6
CONTINUOUS
 62
    7
 10
368.31102732065563
 20
540.17785046551671
 11
368.31102732065563
 21
661.17786569484861
  0
LINE
  8
_0-0_
  6
CONTINUOUS
 62
    7
 10
345.24792630700068
 20
540.17785046551671
 11
345.24792630700068
 21
661.17786569484861
  0
LINE
  8
_0-0_
  6
CONTINUOUS
 62
    7
 10
348.74793542397987
 20
540.17785046551671
 11
348.74793542397987
 21
661.17786569484861
  0
LINE
  8
_0-0_
  6
CONTINUOUS
 62
    7
 10
325.68481253841207
 20
540.17785046551671
 11
325.68481253841207
 21
661.17786569484861
  0
LINE
  8
_0-0_
  6
CONTINUOUS
 62
    7
 10
329.18482165539126
 20
540.17785046551671
 11
329.18482165539126
 21
661.17786569484861
  0
LINE
  8
_0-0_
  6
CONTINUOUS
 62
    7
 10
287.93728103048551
 20
554.17784318960776
 11
287.93728103048551
 21
661.17786569484861
  0
LINE
  8
_0-0_
  6
CONTINUOUS
 62
    7
 10
475.18725479891856
 20
667.17785632748405
 11
475.18725479891856
 21
688.29107630667079
  0
LINE
  8
_0-0_
  6
CONTINUOUS
 62
    7
 10
477.68725818648761
 20
661.17786569484861
 11
475.18725479891856
 21
661.17786569484861
  0
LINE
  8
_0-0_
  6
CONTINUOUS
 62
    7
 10
477.68725818648761
 20
688.29107630667079
 11
477.68725818648761
 21
667.17785632748405
  0
LINE
  8
_0-0_
  6
CONTINUOUS
 62
    7
 10
476.43727836461602
 20
691.17786260185085
 11
475.18725479891856
 21
688.29107630667079
  0
LINE
  8
_0-0_
  6
CONTINUOUS
 62
    7
 10
476.43727836461602
 20
691.17786260185085
 11
477.68725818648761
 21
688.29107630667079
  0
LINE
  8
_0-0_
  6
CONTINUOUS
 62
    7
 10
474.43726690579558
 20
668.54327610560813
 11
478.43728982343634
 21
668.54327610560813
  0
LINE
  8
_0-0_
  6
CONTINUOUS
 62
    7
 10
478.43728982343634
 20
668.54327610560813
 11
478.43728982343634
 21
667.20996429561183
  0
LINE
  8
_0-0_
  6
CONTINUOUS
 62
    7
 10
478.43728982343634
 20
667.20996429561183
 11
474.43726690579558
 21
667.20996429561183
  0
LINE
  8
_0-0_
  6
CONTINUOUS
 62
    7
 10
474.43726690579558
 20
667.20996429561183
 11
474.43726690579558
 21
668.54327610560813
  0
LINE
  8
_0-0_
  6
CONTINUOUS
 62
    7
 10
474.43726690579558
 20
671.20994346942678
 11
478.43728982343634
 21
671.20994346942678
  0
LINE
  8
_0-0_
  6
CONTINUOUS
 62
    7
 10
478.43728982343634
 20
671.20994346942678
 11
478.43728982343634
 21
669.87658791560466
  0
LINE
  8
_0-0_
  6
CONTINUOUS
 62
    7
 10
478.43728982343634
 20
669.87658791560466
 11
474.43726690579558
 21
669.87658791560466
  0
LINE
  8
_0-0_
  6
CONTINUOUS
 62
    7
 10
474.43726690579558
 20
669.87658791560466
 11
474.43726690579558
 21
671.20994346942678
  0
LINE
  8
_0-0_
  6
CONTINUOUS
 62
    7
 10
474.43726690579558
 20
673.87661083324531
 11
478.43728982343634
 21
673.87661083324531
  0
LINE
  8
_0-0_
  6
CONTINUOUS
 62
    7
 10
478.43728982343634
 20
673.87661083324531
 11
478.43728982343634
 21
672.54325527942319
  0
LINE
  8
_0-0_
  6
CONTINUOUS
 62
    7
 10
478.43728982343634
 20
672.54325527942319
 11
474.43726690579558
 21
672.54325527942319
  0
LINE
  8
_0-0_
  6
CONTINUOUS
 62
    7
 10
474.43726690579558
 20
672.54325527942319
 11
474.43726690579558
 21
673.87661083324531
  0
LINE
  8
_0-0_
  6
CONTINUOUS
 62
    7
 10
474.43726690579558
 20
676.54327819706384
 11
478.43728982343634
 21
676.54327819706384
  0
LINE
  8
_0-0_
  6
CONTINUOUS
 62
    7
 10
478.43728982343634
 20
676.54327819706384
 11
478.43728982343634
 21
675.20992264324161
  0
LINE
  8
_0-0_
  6
CONTINUOUS
 62
    7
 10
478.43728982343634
 20
675.20992264324161
 11
474.43726690579558
 21
675.20992264324161
  0
LINE
  8
_0-0_
  6
CONTINUOUS
 62
    7
 10
474.43726690579558
 20
675.20992264324161
 11
474.43726690579558
 21
676.54327819706384
  0
LINE
  8
_0-0_
  6
CONTINUOUS
 62
    7
 10
474.43726690579558
 20
679.20994556088249
 11
478.43728982343634
 21
679.20994556088249
  0
LINE
  8
_0-0_
  6
CONTINUOUS
 62
    7
 10
478.43728982343634
 20
679.20994556088249
 11
478.43728982343634
 21
677.87659000706026
  0
LINE
  8
_0-0_
  6
CONTINUOUS
 62
    7
 10
478.43728982343634
 20
677.87659000706026
 11
474.43726690579558
 21
677.87659000706026
  0
LINE
  8
_0-0_
  6
CONTINUOUS
 62
    7
 10
474.43726690579558
 20
677.87659000706026
 11
474.43726690579558
 21
679.20994556088249
  0
LINE
  8
_0-0_
  6
CONTINUOUS
 62
    7
 10
474.43726690579558
 20
681.87661292470102
 11
478.43728982343634
 21
681.87661292470102
  0
LINE
  8
_0-0_
  6
CONTINUOUS
 62
    7
 10
478.43728982343634
 20
681.87661292470102
 11
478.43728982343634
 21
680.54325737087879
  0
LINE
  8
_0-0_
  6
CONTINUOUS
 62
    7
 10
478.43728982343634
 20
680.54325737087879
 11
474.43726690579558
 21
680.54325737087879
  0
LINE
  8
_0-0_
  6
CONTINUOUS
 62
    7
 10
474.43726690579558
 20
680.54325737087879
 11
474.43726690579558
 21
681.87661292470102
  0
LINE
  8
_0-0_
  6
CONTINUOUS
 62
    7
 10
474.43726690579558
 20
684.54328028851944
 11
478.43728982343634
 21
684.54328028851944
  0
LINE
  8
_0-0_
  6
CONTINUOUS
 62
    7
 10
478.43728982343634
 20
684.54328028851944
 11
478.43728982343634
 21
683.20992473469732
  0
LINE
  8
_0-0_
  6
CONTINUOUS
 62
    7
 10
478.43728982343634
 20
683.20992473469732
 11
474.43726690579558
 21
683.20992473469732
  0
LINE
  8
_0-0_
  6
CONTINUOUS
 62
    7
 10
474.43726690579558
 20
683.20992473469732
 11
474.43726690579558
 21
684.54328028851944
  0
LINE
  8
_0-0_
  6
CONTINUOUS
 62
    7
 10
474.43726690579558
 20
687.20994765233809
 11
478.43728982343634
 21
687.20994765233809
  0
LINE
  8
_0-0_
  6
CONTINUOUS
 62
    7
 10
478.43728982343634
 20
687.20994765233809
 11
478.43728982343634
 21
685.87659209851597
  0
LINE
  8
_0-0_
  6
CONTINUOUS
 62
    7
 10
478.43728982343634
 20
685.87659209851597
 11
474.43726690579558
 21
685.87659209851597
  0
LINE
  8
_0-0_
  6
CONTINUOUS
 62
    7
 10
474.43726690579558
 20
685.87659209851597
 11
474.43726690579558
 21
687.20994765233809
  0
LINE
  8
_0-0_
  6
CONTINUOUS
 62
    7
 10
482.43726899725124
 20
661.17786569484861
 11
470.43728773198069
 21
661.17786569484861
  0
LINE
  8
_0-0_
  6
CONTINUOUS
 62
    7
 10
482.43726899725124
 20
661.17786569484861
 11
482.43726899725124
 21
657.17784277720796
  0
LINE
  8
_0-0_
  6
CONTINUOUS
 62
    7
 10
470.416246951777
 20
661.17786569484861
 11
470.416246951777
 21
657.17784277720796
  0
LINE
  8
_0-0_
  6
CONTINUOUS
 62
    7
 10
470.416246951777
 20
657.17784277720796
 11
482.43726899725124
 21
657.17784277720796
  0
LINE
  8
_0-0_
  6
CONTINUOUS
 62
    7
 10
337.18727340109098
 20
667.17785632748405
 11
337.18727340109098
 21
688.29107630667079
  0
LINE
  8
_0-0_
  6
CONTINUOUS
 62
    7
 10
339.68727678865997
 20
661.17786569484861
 11
337.18727340109098
 21
661.17786569484861
  0
LINE
  8
_0-0_
  6
CONTINUOUS
 62
    7
 10
339.68727678865997
 20
688.29107630667079
 11
339.68727678865997
 21
667.17785632748405
  0
LINE
  8
_0-0_
  6
CONTINUOUS
 62
    7
 10
338.43727509487553
 20
691.17786260185085
 11
337.18727340109098
 21
688.29107630667079
  0
LINE
  8
_0-0_
  6
CONTINUOUS
 62
    7
 10
338.43727509487553
 20
691.17786260185085
 11
339.68727678865997
 21
688.29107630667079
  0
LINE
  8
_0-0_
  6
CONTINUOUS
 62
    7
 10
336.43726363605509
 20
668.54327610560813
 11
340.43726468178295
 21
668.54327610560813
  0
LINE
  8
_0-0_
  6
CONTINUOUS
 62
    7
 10
340.43726468178295
 20
668.54327610560813
 11
340.43726468178295
 21
667.20996429561183
  0
LINE
  8
_0-0_
  6
CONTINUOUS
 62
    7
 10
340.43726468178295
 20
667.20996429561183
 11
336.43726363605509
 21
667.20996429561183
  0
LINE
  8
_0-0_
  6
CONTINUOUS
 62
    7
 10
336.43726363605509
 20
667.20996429561183
 11
336.43726363605509
 21
668.54327610560813
  0
LINE
  8
_0-0_
  6
CONTINUOUS
 62
    7
 10
336.43726363605509
 20
671.20994346942678
 11
340.43726468178295
 21
671.20994346942678
  0
LINE
  8
_0-0_
  6
CONTINUOUS
 62
    7
 10
340.43726468178295
 20
671.20994346942678
 11
340.43726468178295
 21
669.87658791560466
  0
LINE
  8
_0-0_
  6
CONTINUOUS
 62
    7
 10
340.43726468178295
 20
669.87658791560466
 11
336.43726363605509
 21
669.87658791560466
  0
LINE
  8
_0-0_
  6
CONTINUOUS
 62
    7
 10
336.43726363605509
 20
669.87658791560466
 11
336.43726363605509
 21
671.20994346942678
  0
LINE
  8
_0-0_
  6
CONTINUOUS
 62
    7
 10
336.43726363605509
 20
673.87661083324531
 11
340.43726468178295
 21
673.87661083324531
  0
LINE
  8
_0-0_
  6
CONTINUOUS
 62
    7
 10
340.43726468178295
 20
673.87661083324531
 11
340.43726468178295
 21
672.54325527942319
  0
LINE
  8
_0-0_
  6
CONTINUOUS
 62
    7
 10
340.43726468178295
 20
672.54325527942319
 11
336.43726363605509
 21
672.54325527942319
  0
LINE
  8
_0-0_
  6
CONTINUOUS
 62
    7
 10
336.43726363605509
 20
672.54325527942319
 11
336.43726363605509
 21
673.87661083324531
  0
LINE
  8
_0-0_
  6
CONTINUOUS
 62
    7
 10
336.43726363605509
 20
676.54327819706384
 11
340.43726468178295
 21
676.54327819706384
  0
LINE
  8
_0-0_
  6
CONTINUOUS
 62
    7
 10
340.43726468178295
 20
676.54327819706384
 11
340.43726468178295
 21
675.20992264324161
  0
LINE
  8
_0-0_
  6
CONTINUOUS
 62
    7
 10
340.43726468178295
 20
675.20992264324161
 11
336.43726363605509
 21
675.20992264324161
  0
LINE
  8
_0-0_
  6
CONTINUOUS
 62
    7
 10
336.43726363605509
 20
675.20992264324161
 11
336.43726363605509
 21
676.54327819706384
  0
LINE
  8
_0-0_
  6
CONTINUOUS
 62
    7
 10
336.43726363605509
 20
679.20994556088249
 11
340.43726468178295
 21
679.20994556088249
  0
LINE
  8
_0-0_
  6
CONTINUOUS
 62
    7
 10
340.43726468178295
 20
679.20994556088249
 11
340.43726468178295
 21
677.87659000706026
  0
LINE
  8
_0-0_
  6
CONTINUOUS
 62
    7
 10
340.43726468178295
 20
677.87659000706026
 11
336.43726363605509
 21
677.87659000706026
  0
LINE
  8
_0-0_
  6
CONTINUOUS
 62
    7
 10
336.43726363605509
 20
677.87659000706026
 11
336.43726363605509
 21
679.20994556088249
  0
LINE
  8
_0-0_
  6
CONTINUOUS
 62
    7
 10
336.43726363605509
 20
681.87661292470102
 11
340.43726468178295
 21
681.87661292470102
  0
LINE
  8
_0-0_
  6
CONTINUOUS
 62
    7
 10
340.43726468178295
 20
681.87661292470102
 11
340.43726468178295
 21
680.54325737087879
  0
LINE
  8
_0-0_
  6
CONTINUOUS
 62
    7
 10
340.43726468178295
 20
680.54325737087879
 11
336.43726363605509
 21
680.54325737087879
  0
LINE
  8
_0-0_
  6
CONTINUOUS
 62
    7
 10
336.43726363605509
 20
680.54325737087879
 11
336.43726363605509
 21
681.87661292470102
  0
LINE
  8
_0-0_
  6
CONTINUOUS
 62
    7
 10
336.43726363605509
 20
684.54328028851944
 11
340.43726468178295
 21
684.54328028851944
  0
LINE
  8
_0-0_
  6
CONTINUOUS
 62
    7
 10
340.43726468178295
 20
684.54328028851944
 11
340.43726468178295
 21
683.20992473469732
  0
LINE
  8
_0-0_
  6
CONTINUOUS
 62
    7
 10
340.43726468178295
 20
683.20992473469732
 11
336.43726363605509
 21
683.20992473469732
  0
LINE
  8
_0-0_
  6
CONTINUOUS
 62
    7
 10
336.43726363605509
 20
683.20992473469732
 11
336.43726363605509
 21
684.54328028851944
  0
LINE
  8
_0-0_
  6
CONTINUOUS
 62
    7
 10
336.43726363605509
 20
687.20994765233809
 11
340.43726468178295
 21
687.20994765233809
  0
LINE
  8
_0-0_
  6
CONTINUOUS
 62
    7
 10
340.43726468178295
 20
687.20994765233809
 11
340.43726468178295
 21
685.87659209851597
  0
LINE
  8
_0-0_
  6
CONTINUOUS
 62
    7
 10
340.43726468178295
 20
685.87659209851597
 11
336.43726363605509
 21
685.87659209851597
  0
LINE
  8
_0-0_
  6
CONTINUOUS
 62
    7
 10
336.43726363605509
 20
685.87659209851597
 11
336.43726363605509
 21
687.20994765233809
  0
LINE
  8
_0-0_
  6
CONTINUOUS
 62
    7
 10
344.43726572751075
 20
661.17786569484861
 11
332.43726259032724
 21
661.17786569484861
  0
LINE
  8
_0-0_
  6
CONTINUOUS
 62
    7
 10
344.43726572751075
 20
661.17786569484861
 11
344.43726572751075
 21
657.17784277720796
  0
LINE
  8
_0-0_
  6
CONTINUOUS
 62
    7
 10
332.41624368203651
 20
661.17786569484861
 11
332.41624368203651
 21
657.17784277720796
  0
LINE
  8
_0-0_
  6
CONTINUOUS
 62
    7
 10
332.41624368203651
 20
657.17784277720796
 11
344.43726572751075
 21
657.17784277720796
  0
LINE
  8
_0-0_
  6
CONTINUOUS
 62
    7
 10
286.40482545359248
 20
307.57125979684952
 11
532.40483508607133
 21
307.57125979684952
  0
LINE
  8
_0-0_
  6
CONTINUOUS
 62
    7
 10
283.9048220660236
 20
295.50824367861946
 11
534.90483847364032
 21
295.51729865055745
  0
LINE
  8
_0-0_
  6
CONTINUOUS
 62
    7
 10
512.47037998037445
 20
222.26537527725043
 11
512.47037998037445
 21
295.51648938978042
  0
LINE
  8
_0-0_
  6
CONTINUOUS
 62
    7
 10
508.97039273530817
 20
222.26537527725043
 11
508.97039273530817
 21
295.51635815830303
  0
LINE
  8
_0-0_
  6
CONTINUOUS
 62
    7
 10
432.4679531553997
 20
222.26537527725043
 11
432.4679531553997
 21
295.5136022972784
  0
LINE
  8
_0-0_
  6
CONTINUOUS
 62
    7
 10
428.96792216650766
 20
222.26537527725043
 11
428.96792216650766
 21
295.51347106580107
  0
LINE
  8
_0-0_
  6
CONTINUOUS
 62
    7
 10
452.03106692398831
 20
222.26537527725043
 11
452.03106692398831
 21
295.51430219849101
  0
LINE
  8
_0-0_
  6
CONTINUOUS
 62
    7
 10
448.53103593509627
 20
222.26537527725043
 11
448.53103593509627
 21
295.51417096701368
  0
LINE
  8
_0-0_
  6
CONTINUOUS
 62
    7
 10
471.59418069257697
 20
222.26537527725043
 11
471.59418069257697
 21
295.51500209970362
  0
LINE
  8
_0-0_
  6
CONTINUOUS
 62
    7
 10
468.09414970368488
 20
222.26537527725043
 11
468.09414970368488
 21
295.51487086822624
  0
LINE
  8
_0-0_
  6
CONTINUOUS
 62
    7
 10
491.15729446116563
 20
222.26537527725043
 11
491.15729446116563
 21
295.51570200091624
  0
LINE
  8
_0-0_
  6
CONTINUOUS
 62
    7
 10
487.65726347227348
 20
222.26537527725043
 11
487.65726347227348
 21
295.51559264135176
  0
LINE
  8
_0-0_
  6
CONTINUOUS
 62
    7
 10
306.33925868737651
 20
222.26537527725043
 11
306.33925868737651
 21
295.50905293939655
  0
LINE
  8
_0-0_
  6
CONTINUOUS
 62
    7
 10
309.8392678043557
 20
222.26537527725043
 11
309.8392678043557
 21
295.50916229896103
  0
LINE
  8
_0-0_
  6
CONTINUOUS
 62
    7
 10
386.34170738426411
 20
222.26537527725043
 11
386.34170738426411
 21
295.51194003189852
  0
LINE
  8
_0-0_
  6
CONTINUOUS
 62
    7
 10
389.84173837315615
 20
222.26537527725043
 11
389.84173837315615
 21
295.51204939146299
  0
LINE
  8
_0-0_
  6
CONTINUOUS
 62
    7
 10
366.77861548758841
 20
222.26537527725043
 11
366.77861548758841
 21
295.51121825877306
  0
LINE
  8
_0-0_
  6
CONTINUOUS
 62
    7
 10
370.2786246045676
 20
222.26537527725043
 11
370.2786246045676
 21
295.51134949025038
  0
LINE
  8
_0-0_
  6
CONTINUOUS
 62
    7
 10
347.2155017189998
 20
222.26537527725043
 11
347.2155017189998
 21
295.51051835756039
  0
LINE
  8
_0-0_
  6
CONTINUOUS
 62
    7
 10
350.71548896406603
 20
222.26537527725043
 11
350.71548896406603
 21
295.51064958903783
  0
LINE
  8
_0-0_
  6
CONTINUOUS
 62
    7
 10
327.65238795041114
 20
222.26537527725043
 11
327.65238795041114
 21
295.50981845634783
  0
LINE
  8
_0-0_
  6
CONTINUOUS
 62
    7
 10
331.15237519547742
 20
222.26537527725043
 11
331.15237519547742
 21
295.50994968782516
  0
LINE
  8
_0-0_
  6
CONTINUOUS
 62
    7
 10
533.65214653456985
 20
251.76717375236126
 11
533.65214653456985
 21
295.51718929099297
  0
LINE
  8
_0-0_
  6
CONTINUOUS
 62
    7
 10
530.15211554567782
 20
251.76717375236126
 11
530.15211554567782
 21
295.51718929099297
  0
LINE
  8
_0-0_
  6
CONTINUOUS
 62
    7
 10
411.15482389236502
 20
222.26537527725043
 11
411.15482389236502
 21
295.51277116458846
  0
LINE
  8
_0-0_
  6
CONTINUOUS
 62
    7
 10
407.65483664729879
 20
222.26537527725043
 11
407.65483664729879
 21
295.51277116458846
  0
LINE
  8
_0-0_
  6
CONTINUOUS
 62
    7
 10
288.65212075958834
 20
251.75833749955223
 11
288.65212075958834
 21
295.50835303818394
  0
LINE
  8
_0-0_
  6
CONTINUOUS
 62
    7
 10
285.15213351452212
 20
251.75833749955223
 11
285.15213351452212
 21
295.50835303818394
  0
LINE
  8
_0-0_
  6
CONTINUOUS
 62
    7
 10
534.90483847364032
 20
305.07125640928052
 11
534.90483847364032
 21
295.51729865055745
  0
LINE
  8
_0-0_
  6
CONTINUOUS
 62
    7
 10
283.9048220660236
 20
305.07125640928052
 11
283.9048220660236
 21
295.50824367861946
  0
LINE
  8
_0-0_
  6
CONTINUOUS
 62
    7
 10
670.45072562906273
 20
220.51538165471726
 11
785.15486698813424
 21
220.51538165471726
  0
LINE
  8
_0-0_
  6
CONTINUOUS
 62
    7
 10
661.20069997190967
 20
295.51729865055745
 11
713.30278978384604
 21
295.51729865055745
  0
LINE
  8
_0-0_
  6
CONTINUOUS
 62
    7
 10
661.20069997190967
 20
295.51729865055745
 11
794.40484890146138
 21
295.51729865055745
  0
LINE
  8
_0-0_
  6
CONTINUOUS
 62
    7
 10
663.70070335947855
 20
307.57125979684952
 11
791.90480177006657
 21
307.57125979684952
  0
LINE
  8
_0-0_
  6
CONTINUOUS
 62
    7
 10
661.20069997190967
 20
305.07125640928052
 11
661.20069997190967
 21
295.51729865055745
  0
LINE
  8
_0-0_
  6
CONTINUOUS
 62
    7
 10
662.45072353760702
 20
295.51729865055745
 11
662.45072353760702
 21
228.51538374617292
  0
LINE
  8
_0-0_
  6
CONTINUOUS
 62
    7
 10
665.95071078267335
 20
295.51729865055745
 11
665.95071078267335
 21
228.51538374617292
  0
LINE
  8
_0-0_
  6
CONTINUOUS
 62
    7
 10
789.654794346872
 20
295.51729865055745
 11
789.654794346872
 21
228.51538374617292
  0
LINE
  8
_0-0_
  6
CONTINUOUS
 62
    7
 10
793.15482533576403
 20
295.51729865055745
 11
793.15482533576403
 21
228.51538374617292
  0
LINE
  8
_0-0_
  6
CONTINUOUS
 62
    7
 10
670.45072562906273
 20
224.01536889978357
 11
785.15486698813424
 21
224.01536889978357
  0
LINE
  8
_0-0_
  6
CONTINUOUS
 62
    7
 10
689.30278350947901
 20
250.01718012982815
 11
766.30276536389204
 21
250.01718012982815
  0
LINE
  8
_0-0_
  6
CONTINUOUS
 62
    7
 10
681.30278141802341
 20
295.51729865055745
 11
681.30278141802341
 21
258.01718222128375
  0
LINE
  8
_0-0_
  6
CONTINUOUS
 62
    7
 10
684.80276866308964
 20
295.51729865055745
 11
684.80276866308964
 21
258.01718222128375
  0
LINE
  8
_0-0_
  6
CONTINUOUS
 62
    7
 10
770.8027802102813
 20
295.51729865055745
 11
770.8027802102813
 21
258.01718222128375
  0
LINE
  8
_0-0_
  6
CONTINUOUS
 62
    7
 10
774.30281119917345
 20
295.51729865055745
 11
774.30281119917345
 21
258.01718222128375
  0
LINE
  8
_0-0_
  6
CONTINUOUS
 62
    7
 10
689.30278350947901
 20
253.51718924680733
 11
766.30276536389204
 21
253.51718924680733
  0
LINE
  8
_0-0_
  6
CONTINUOUS
 62
    7
 10
794.40484890146138
 20
305.07125640928052
 11
794.40484890146138
 21
295.51729865055745
  0
LINE
  8
_0-0_
  6
CONTINUOUS
 62
    7
 10
794.40484890146138
 20
302.3400887743386
 11
815.51894375716392
 21
302.3400887743386
  0
LINE
  8
_0-0_
  6
CONTINUOUS
 62
    7
 10
815.51894375716392
 20
299.84010725868251
 11
794.40484890146138
 21
299.84010725868251
  0
LINE
  8
_0-0_
  6
CONTINUOUS
 62
    7
 10
818.4056863085184
 20
301.09010895246701
 11
815.51894375716392
 21
302.3400887743386
  0
LINE
  8
_0-0_
  6
CONTINUOUS
 62
    7
 10
818.4056863085184
 20
301.09010895246701
 11
815.51894375716392
 21
299.84010725868251
  0
LINE
  8
_0-0_
  6
CONTINUOUS
 62
    7
 10
795.77114355610138
 20
303.09009853937448
 11
795.77114355610138
 21
299.09009749364668
  0
LINE
  8
_0-0_
  6
CONTINUOUS
 62
    7
 10
795.77114355610138
 20
299.09009749364668
 11
794.43783174610508
 21
299.09009749364668
  0
LINE
  8
_0-0_
  6
CONTINUOUS
 62
    7
 10
794.43783174610508
 20
299.09009749364668
 11
794.43783174610508
 21
303.09009853937448
  0
LINE
  8
_0-0_
  6
CONTINUOUS
 62
    7
 10
794.43783174610508
 20
303.09009853937448
 11
795.77114355610138
 21
303.09009853937448
  0
LINE
  8
_0-0_
  6
CONTINUOUS
 62
    7
 10
798.43776717609421
 20
303.09009853937448
 11
798.43776717609421
 21
299.09009749364668
  0
LINE
  8
_0-0_
  6
CONTINUOUS
 62
    7
 10
798.43776717609421
 20
299.09009749364668
 11
797.1044553660978
 21
299.09009749364668
  0
LINE
  8
_0-0_
  6
CONTINUOUS
 62
    7
 10
797.1044553660978
 20
299.09009749364668
 11
797.1044553660978
 21
303.09009853937448
  0
LINE
  8
_0-0_
  6
CONTINUOUS
 62
    7
 10
797.1044553660978
 20
303.09009853937448
 11
798.43776717609421
 21
303.09009853937448
  0
LINE
  8
_0-0_
  6
CONTINUOUS
 62
    7
 10
801.10447828373844
 20
303.09009853937448
 11
801.10447828373844
 21
299.09009749364668
  0
LINE
  8
_0-0_
  6
CONTINUOUS
 62
    7
 10
801.10447828373844
 20
299.09009749364668
 11
799.77116647374214
 21
299.09009749364668
  0
LINE
  8
_0-0_
  6
CONTINUOUS
 62
    7
 10
799.77116647374214
 20
299.09009749364668
 11
799.77116647374214
 21
303.09009853937448
  0
LINE
  8
_0-0_
  6
CONTINUOUS
 62
    7
 10
799.77116647374214
 20
303.09009853937448
 11
801.10447828373844
 21
303.09009853937448
  0
LINE
  8
_0-0_
  6
CONTINUOUS
 62
    7
 10
803.77110190373128
 20
303.09009853937448
 11
803.77110190373128
 21
299.09009749364668
  0
LINE
  8
_0-0_
  6
CONTINUOUS
 62
    7
 10
803.77110190373128
 20
299.09009749364668
 11
802.43779009373486
 21
299.09009749364668
  0
LINE
  8
_0-0_
  6
CONTINUOUS
 62
    7
 10
802.43779009373486
 20
299.09009749364668
 11
802.43779009373486
 21
303.09009853937448
  0
LINE
  8
_0-0_
  6
CONTINUOUS
 62
    7
 10
802.43779009373486
 20
303.09009853937448
 11
803.77110190373128
 21
303.09009853937448
  0
LINE
  8
_0-0_
  6
CONTINUOUS
 62
    7
 10
806.43781301137562
 20
303.09009853937448
 11
806.43781301137562
 21
299.09009749364668
  0
LINE
  8
_0-0_
  6
CONTINUOUS
 62
    7
 10
806.43781301137562
 20
299.09009749364668
 11
805.10450120137921
 21
299.09009749364668
  0
LINE
  8
_0-0_
  6
CONTINUOUS
 62
    7
 10
805.10450120137921
 20
299.09009749364668
 11
805.10450120137921
 21
303.09009853937448
  0
LINE
  8
_0-0_
  6
CONTINUOUS
 62
    7
 10
805.10450120137921
 20
303.09009853937448
 11
806.43781301137562
 21
303.09009853937448
  0
LINE
  8
_0-0_
  6
CONTINUOUS
 62
    7
 10
809.10443663136834
 20
303.09009853937448
 11
809.10443663136834
 21
299.09009749364668
  0
LINE
  8
_0-0_
  6
CONTINUOUS
 62
    7
 10
809.10443663136834
 20
299.09009749364668
 11
807.77112482137204
 21
299.09009749364668
  0
LINE
  8
_0-0_
  6
CONTINUOUS
 62
    7
 10
807.77112482137204
 20
299.09009749364668
 11
807.77112482137204
 21
303.09009853937448
  0
LINE
  8
_0-0_
  6
CONTINUOUS
 62
    7
 10
807.77112482137204
 20
303.09009853937448
 11
809.10443663136834
 21
303.09009853937448
  0
LINE
  8
_0-0_
  6
CONTINUOUS
 62
    7
 10
811.77114773901269
 20
303.09009853937448
 11
811.77114773901269
 21
299.09009749364668
  0
LINE
  8
_0-0_
  6
CONTINUOUS
 62
    7
 10
811.77114773901269
 20
299.09009749364668
 11
810.43783592901627
 21
299.09009749364668
  0
LINE
  8
_0-0_
  6
CONTINUOUS
 62
    7
 10
810.43783592901627
 20
299.09009749364668
 11
810.43783592901627
 21
303.09009853937448
  0
LINE
  8
_0-0_
  6
CONTINUOUS
 62
    7
 10
810.43783592901627
 20
303.09009853937448
 11
811.77114773901269
 21
303.09009853937448
  0
LINE
  8
_0-0_
  6
CONTINUOUS
 62
    7
 10
814.43777135900541
 20
303.09009853937448
 11
814.43777135900541
 21
299.09009749364668
  0
LINE
  8
_0-0_
  6
CONTINUOUS
 62
    7
 10
814.43777135900541
 20
299.09009749364668
 11
813.10445954900899
 21
299.09009749364668
  0
LINE
  8
_0-0_
  6
CONTINUOUS
 62
    7
 10
813.10445954900899
 20
299.09009749364668
 11
813.10445954900899
 21
303.09009853937448
  0
LINE
  8
_0-0_
  6
CONTINUOUS
 62
    7
 10
813.10445954900899
 20
303.09009853937448
 11
814.43777135900541
 21
303.09009853937448
  0
LINE
  8
_0-0_
  6
CONTINUOUS
 62
    7
 10
788.40573314534186
 20
295.09009644791882
 11
788.40573314534186
 21
295.51729865055745
  0
LINE
  8
_0-0_
  6
CONTINUOUS
 62
    7
 10
788.40573314534186
 20
295.09009644791882
 11
784.40571022770109
 21
295.09009644791882
  0
LINE
  8
_0-0_
  6
CONTINUOUS
 62
    7
 10
784.40571022770109
 20
295.51729865055745
 11
784.40571022770109
 21
295.09009644791882
  0
ARC
  8
_0-0_
  6
CONTINUOUS
 62
    7
 10
301.93727375457638
 20
554.17784318960776
 40
19.999999760660884
 50
180
 51
270
  0
ARC
  8
_0-0_
  6
CONTINUOUS
 62
    7
 10
512.93725783300215
 20
554.17784318960776
 40
19.999999760660884
 50
270
 51
0
  0
ARC
  8
_0-0_
  6
CONTINUOUS
 62
    7
 10
301.93727375457638
 20
554.17784318960776
 40
13.999999559063706
 50
180
 51
270
  0
ARC
  8
_0-0_
  6
CONTINUOUS
 62
    7
 10
512.93725783300215
 20
554.17784318960776
 40
13.999999559063706
 50
270
 51
0
  0
ARC
  8
_0-0_
  6
CONTINUOUS
 62
    7
 10
476.42673610260124
 20
665.20938416705621
 40
10.031561050635966
 50
233.19017028808594
 51
306.809814453125
  0
ARC
  8
_0-0_
  6
CONTINUOUS
 62
    7
 10
338.4267547047736
 20
665.20938416705621
 40
10.031561050635966
 50
233.19017028808594
 51
306.809814453125
  0
ARC
  8
_0-0_
  6
CONTINUOUS
 62
    7
 10
308.08927418182247
 20
222.26537527725043
 40
1.7499999448829633
 50
180
 51
0
  0
ARC
  8
_0-0_
  6
CONTINUOUS
 62
    7
 10
329.40238157294431
 20
222.26537527725043
 40
1.7499999448829633
 50
180
 51
0
  0
ARC
  8
_0-0_
  6
CONTINUOUS
 62
    7
 10
348.96549534153291
 20
222.26537527725043
 40
1.7499999448829633
 50
180
 51
0
  0
ARC
  8
_0-0_
  6
CONTINUOUS
 62
    7
 10
368.52860911012152
 20
222.26537527725043
 40
1.7499999448829633
 50
180
 51
0
  0
ARC
  8
_0-0_
  6
CONTINUOUS
 62
    7
 10
388.09172287871013
 20
222.26537527725043
 40
1.7499999448829633
 50
180
 51
0
  0
ARC
  8
_0-0_
  6
CONTINUOUS
 62
    7
 10
409.40485214174481
 20
222.26537527725043
 40
1.7499999448829633
 50
180
 51
0
  0
ARC
  8
_0-0_
  6
CONTINUOUS
 62
    7
 10
430.71793766095368
 20
222.26537527725043
 40
1.7499999448829633
 50
180
 51
0
  0
ARC
  8
_0-0_
  6
CONTINUOUS
 62
    7
 10
450.28105142954234
 20
222.26537527725043
 40
1.7499999448829633
 50
180
 51
0
  0
ARC
  8
_0-0_
  6
CONTINUOUS
 62
    7
 10
469.84416519813095
 20
222.26537527725043
 40
1.7499999448829633
 50
180
 51
0
  0
ARC
  8
_0-0_
  6
CONTINUOUS
 62
    7
 10
489.4072789667195
 20
222.26537527725043
 40
1.7499999448829633
 50
180
 51
0
  0
ARC
  8
_0-0_
  6
CONTINUOUS
 62
    7
 10
510.72040822975424
 20
222.26537527725043
 40
1.7499999448829633
 50
180
 51
0
  0
ARC
  8
_0-0_
  6
CONTINUOUS
 62
    7
 10
531.90213104012389
 20
251.76717375236126
 40
1.7499999448829633
 50
180
 51
0
  0
ARC
  8
_0-0_
  6
CONTINUOUS
 62
    7
 10
286.90212713705523
 20
251.75833749955223
 40
1.7499999448829633
 50
180
 51
0
  0
ARC
  8
_0-0_
  6
CONTINUOUS
 62
    7
 10
532.40483508607133
 20
305.07125640928052
 40
2.4999999700826105
 50
0
 51
90
  0
ARC
  8
_0-0_
  6
CONTINUOUS
 62
    7
 10
286.40482545359248
 20
305.07125640928052
 40
2.4999999700826105
 50
90
 51
180
  0
ARC
  8
_0-0_
  6
CONTINUOUS
 62
    7
 10
785.15486698813424
 20
228.51538374617292
 40
8.0000000409638101
 50
270
 51
0
  0
ARC
  8
_0-0_
  6
CONTINUOUS
 62
    7
 10
670.45072562906273
 20
228.51538374617292
 40
8.0000000409638101
 50
180
 51
270
  0
ARC
  8
_0-0_
  6
CONTINUOUS
 62
    7
 10
663.70070335947855
 20
305.07125640928052
 40
2.4999999700826105
 50
90
 51
180
  0
ARC
  8
_0-0_
  6
CONTINUOUS
 62
    7
 10
689.30278350947901
 20
258.01718222128375
 40
8.0000000409638101
 50
180
 51
270
  0
ARC
  8
_0-0_
  6
CONTINUOUS
 62
    7
 10
766.30276536389204
 20
258.01718222128375
 40
8.0000000409638101
 50
270
 51
0
  0
ARC
  8
_0-0_
  6
CONTINUOUS
 62
    7
 10
670.45072562906273
 20
228.51538374617292
 40
4.5000001511978827
 50
180
 51
270
  0
ARC
  8
_0-0_
  6
CONTINUOUS
 62
    7
 10
785.15486698813424
 20
228.51538374617292
 40
4.5000001511978827
 50
270
 51
0
  0
ARC
  8
_0-0_
  6
CONTINUOUS
 62
    7
 10
689.30278350947901
 20
258.01718222128375
 40
4.5000001511978827
 50
180
 51
270
  0
ARC
  8
_0-0_
  6
CONTINUOUS
 62
    7
 10
766.30276536389204
 20
258.01718222128375
 40
4.5000001511978827
 50
270
 51
0
  0
ARC
  8
_0-0_
  6
CONTINUOUS
 62
    7
 10
791.90480177006657
 20
305.07125640928052
 40
2.4999999700826105
 50
0
 51
90
  0
ARC
  8
_0-0_
  6
CONTINUOUS
 62
    7
 10
792.43725161754935
 20
301.10060747065597
 40
10.031561050635966
 50
213.81935119628906
 51
216.809814453125
  0
TEXT
  8
_0-0_
 62
    4
 10
105.86218336834406
 20
116.41367194275134
 40
10
 41
1
 50
0
  1
0
  0
TEXT
  8
_0-0_
 62
    4
 10
154.73717971197885
 20
116.41367194275134
 40
10
 41
1
 50
0
  1
50
  0
TEXT
  8
_0-0_
 62
    4
 10
201.36218634351337
 20
116.41367194275134
 40
10
 41
1
 50
0
  1
100mm
  0
TEXT
  8
_0-0_
 62
    6
 10
1037.4901546934857
 20
867.18591373399408
 40
50
 41
1
 50
0
  1
A10-BS255
  0
ENDSEC
  0
EOF
